ISO-10303-21;
HEADER;
FILE_DESCRIPTION (( 'STEP AP203' ),
    '1' );
FILE_NAME ('a2c9.STEP',
    '2022-07-07T09:46:02',
    ( '' ),
    ( '' ),
    'SwSTEP 2.0',
    'SolidWorks 2019',
    '' );
FILE_SCHEMA (( 'CONFIG_CONTROL_DESIGN' ));
ENDSEC;

DATA;
#1 = APPROVAL_ROLE ( '' ) ;
#2 = DIRECTION ( 'NONE',  ( 1.224646799147353207E-16, 1.000000000000000000, -0.000000000000000000 ) ) ;
#3 = DIRECTION ( 'NONE',  ( 1.000000000000000000, 0.000000000000000000, 0.000000000000000000 ) ) ;
#4 = CYLINDRICAL_SURFACE ( 'NONE', #173, 6.000000000000000888 ) ;
#5 = VECTOR ( 'NONE', #89, 1000.000000000000000 ) ;
#6 = CIRCLE ( 'NONE', #221, 6.000000000000000888 ) ;
#7 = DIRECTION ( 'NONE',  ( 0.000000000000000000, 0.000000000000000000, 1.000000000000000000 ) ) ;
#8 = DATE_AND_TIME ( #105, #268 ) ;
#9 = CC_DESIGN_SECURITY_CLASSIFICATION ( #278, ( #255 ) ) ;
#10 = VERTEX_POINT ( 'NONE', #42 ) ;
#11 = PERSON_AND_ORGANIZATION ( #65, #14 ) ;
#12 = CALENDAR_DATE ( 2022, 7, 7 ) ;
#13 = VERTEX_POINT ( 'NONE', #17 ) ;
#14 = ORGANIZATION ( 'NEURÈENÝ', 'NEURÈENÝ', '' ) ;
#15 = ORIENTED_EDGE ( 'NONE', *, *, #50, .F. ) ;
#16 = ORIENTED_EDGE ( 'NONE', *, *, #98, .T. ) ;
#17 = CARTESIAN_POINT ( 'NONE',  ( 6.000000000000000888, 7.347880794884120722E-16, 7.199999999999984190 ) ) ;
#18 = CARTESIAN_POINT ( 'NONE',  ( 6.200000000000001066, 0.000000000000000000, 6.999999999999992006 ) ) ;
#19 = ORIENTED_EDGE ( 'NONE', *, *, #185, .T. ) ;
#20 = DIRECTION ( 'NONE',  ( 1.000000000000000000, 0.000000000000000000, 0.000000000000000000 ) ) ;
#21 = DIRECTION ( 'NONE',  ( 0.000000000000000000, 0.000000000000000000, 1.000000000000000000 ) ) ;
#22 = AXIS2_PLACEMENT_3D ( 'NONE', #271, #72, #27 ) ;
#23 = APPLICATION_PROTOCOL_DEFINITION ( 'international standard', 'config_control_design', 1994, #145 ) ;
#24 = CARTESIAN_POINT ( 'NONE',  ( -9.000000000000000000, 0.000000000000000000, 0.000000000000000000 ) ) ;
#25 = ADVANCED_FACE ( 'NONE', ( #264 ), #144, .T. ) ;
#26 = CARTESIAN_POINT ( 'NONE',  ( 6.200000000000001066, 0.000000000000000000, 7.199999999999984190 ) ) ;
#27 = DIRECTION ( 'NONE',  ( 1.000000000000000000, 0.000000000000000000, 0.000000000000000000 ) ) ;
#28 = AXIS2_PLACEMENT_3D ( 'NONE', #200, #2, #74 ) ;
#29 = LOCAL_TIME ( 11, 46, 2.000000000000000000, #176 ) ;
#30 = DATE_AND_TIME ( #274, #29 ) ;
#31 = CALENDAR_DATE ( 2022, 7, 7 ) ;
#32 = AXIS2_PLACEMENT_3D ( 'NONE', #44, #299, #188 ) ;
#33 = ORIENTED_EDGE ( 'NONE', *, *, #250, .T. ) ;
#34 = APPROVAL_ROLE ( '' ) ;
#35 = ORIENTED_EDGE ( 'NONE', *, *, #241, .T. ) ;
#36 = ORIENTED_EDGE ( 'NONE', *, *, #258, .T. ) ;
#37 = DIRECTION ( 'NONE',  ( -0.000000000000000000, -0.000000000000000000, -1.000000000000000000 ) ) ;
#38 = EDGE_CURVE ( 'NONE', #162, #287, #78, .T. ) ;
#39 = CARTESIAN_POINT ( 'NONE',  ( 9.000000000000000000, 1.102182119232617714E-15, 0.000000000000000000 ) ) ;
#40 = AXIS2_PLACEMENT_3D ( 'NONE', #240, #45, #288 ) ;
#41 = AXIS2_PLACEMENT_3D ( 'NONE', #77, #150, #20 ) ;
#42 = CARTESIAN_POINT ( 'NONE',  ( -6.200000000000001066, 7.592810154713590821E-16, 6.999999999999992006 ) ) ;
#43 = APPLICATION_PROTOCOL_DEFINITION ( 'international standard', 'config_control_design', 1994, #219 ) ;
#44 = CARTESIAN_POINT ( 'NONE',  ( 0.000000000000000000, 0.000000000000000000, 7.000000000000000000 ) ) ;
#45 = DIRECTION ( 'NONE',  ( 0.000000000000000000, 0.000000000000000000, 1.000000000000000000 ) ) ;
#46 = MECHANICAL_CONTEXT ( 'NONE', #219, 'mechanical' ) ;
#47 = DIRECTION ( 'NONE',  ( -1.000000000000000000, 0.000000000000000000, 0.000000000000000000 ) ) ;
#48 = DIRECTION ( 'NONE',  ( 0.000000000000000000, 0.000000000000000000, 1.000000000000000000 ) ) ;
#49 = CARTESIAN_POINT ( 'NONE',  ( -6.000000000000000888, 0.000000000000000000, 637.0000000000000000 ) ) ;
#50 = EDGE_CURVE ( 'NONE', #10, #108, #249, .T. ) ;
#51 = AXIS2_PLACEMENT_3D ( 'NONE', #280, #140, #115 ) ;
#52 = APPROVAL_ROLE ( '' ) ;
#53 = EDGE_LOOP ( 'NONE', ( #138, #208 ) ) ;
#54 = PERSON_AND_ORGANIZATION ( #65, #14 ) ;
#55 = CC_DESIGN_PERSON_AND_ORGANIZATION_ASSIGNMENT ( #229, #179, ( #255 ) ) ;
#56 = TOROIDAL_SURFACE ( 'NONE', #202, 6.200000000000001066, 0.2000000000000000111 ) ;
#57 = TOROIDAL_SURFACE ( 'NONE', #203, 6.200000000000001066, 0.2000000000000000111 ) ;
#58 = EDGE_CURVE ( 'NONE', #167, #13, #85, .T. ) ;
#59 = CIRCLE ( 'NONE', #41, 6.000000000000000888 ) ;
#60 = ORIENTED_EDGE ( 'NONE', *, *, #177, .T. ) ;
#61 = EDGE_LOOP ( 'NONE', ( #191, #180, #160, #257 ) ) ;
#62 = DESIGN_CONTEXT ( 'detailed design', #145, 'design' ) ;
#63 = CARTESIAN_POINT ( 'NONE',  ( 0.000000000000000000, 0.000000000000000000, 7.000000000000000000 ) ) ;
#64 = EDGE_CURVE ( 'NONE', #166, #87, #291, .T. ) ;
#65 = PERSON ( 'NEURÈENÝ', 'NEURÈENÝ', 'NEURÈENÝ', ('NEURÈENÝ'), ('NEURÈENÝ'), ('NEURÈENÝ') ) ;
#66 = FACE_BOUND ( 'NONE', #117, .T. ) ;
#67 =( GEOMETRIC_REPRESENTATION_CONTEXT ( 3 ) GLOBAL_UNCERTAINTY_ASSIGNED_CONTEXT ( ( #113 ) ) GLOBAL_UNIT_ASSIGNED_CONTEXT ( ( #286, #93, #192 ) ) REPRESENTATION_CONTEXT ( 'NONE', 'WORKASPACE' ) );
#68 = ORIENTED_EDGE ( 'NONE', *, *, #185, .F. ) ;
#69 = DIRECTION ( 'NONE',  ( -1.000000000000000000, 0.000000000000000000, 0.000000000000000000 ) ) ;
#70 = CARTESIAN_POINT ( 'NONE',  ( 0.000000000000000000, 0.000000000000000000, 7.199999999999984190 ) ) ;
#71 = PERSON_AND_ORGANIZATION ( #65, #14 ) ;
#72 = DIRECTION ( 'NONE',  ( 0.000000000000000000, 0.000000000000000000, 1.000000000000000000 ) ) ;
#73 = LOCAL_TIME ( 11, 46, 2.000000000000000000, #295 ) ;
#74 = DIRECTION ( 'NONE',  ( -1.000000000000000000, 1.224646799147353454E-16, 0.000000000000000000 ) ) ;
#75 = EDGE_CURVE ( 'NONE', #162, #87, #303, .T. ) ;
#76 = CARTESIAN_POINT ( 'NONE',  ( 0.000000000000000000, 0.000000000000000000, 637.0000000000000000 ) ) ;
#77 = CARTESIAN_POINT ( 'NONE',  ( 0.000000000000000000, 0.000000000000000000, 7.199999999999984190 ) ) ;
#78 = CIRCLE ( 'NONE', #32, 9.000000000000000000 ) ;
#79 = LOCAL_TIME ( 11, 46, 2.000000000000000000, #225 ) ;
#80 = CC_DESIGN_PERSON_AND_ORGANIZATION_ASSIGNMENT ( #71, #169, ( #139 ) ) ;
#81 = ORIENTED_EDGE ( 'NONE', *, *, #222, .F. ) ;
#82 = ORIENTED_EDGE ( 'NONE', *, *, #177, .F. ) ;
#83 = AXIS2_PLACEMENT_3D ( 'NONE', #217, #96, #119 ) ;
#84 = ADVANCED_FACE ( 'NONE', ( #239 ), #282, .T. ) ;
#85 = LINE ( 'NONE', #259, #252 ) ;
#86 = CC_DESIGN_APPROVAL ( #182, ( #139 ) ) ;
#87 = VERTEX_POINT ( 'NONE', #39 ) ;
#88 = CC_DESIGN_PERSON_AND_ORGANIZATION_ASSIGNMENT ( #133, #178, ( #255 ) ) ;
#89 = DIRECTION ( 'NONE',  ( -0.000000000000000000, -0.000000000000000000, -1.000000000000000000 ) ) ;
#90 = DIRECTION ( 'NONE',  ( -0.000000000000000000, -0.000000000000000000, -1.000000000000000000 ) ) ;
#91 = CARTESIAN_POINT ( 'NONE',  ( -9.000000000000000000, 0.000000000000000000, 7.000000000000000000 ) ) ;
#92 = ORIENTED_EDGE ( 'NONE', *, *, #222, .T. ) ;
#93 =( NAMED_UNIT ( * ) PLANE_ANGLE_UNIT ( ) SI_UNIT ( $, .RADIAN. ) );
#94 = CARTESIAN_POINT ( 'NONE',  ( 0.000000000000000000, 0.000000000000000000, 7.000000000000000000 ) ) ;
#95 = COORDINATED_UNIVERSAL_TIME_OFFSET ( 1, 0, .AHEAD. ) ;
#96 = DIRECTION ( 'NONE',  ( 0.000000000000000000, 0.000000000000000000, 1.000000000000000000 ) ) ;
#97 = DIRECTION ( 'NONE',  ( 1.000000000000000000, 0.000000000000000000, 0.000000000000000000 ) ) ;
#98 = EDGE_CURVE ( 'NONE', #108, #10, #260, .T. ) ;
#99 = DIRECTION ( 'NONE',  ( 0.000000000000000000, 0.000000000000000000, 1.000000000000000000 ) ) ;
#100 = APPROVAL_PERSON_ORGANIZATION ( #120, #182, #1 ) ;
#101 = DIRECTION ( 'NONE',  ( -0.000000000000000000, -0.000000000000000000, -1.000000000000000000 ) ) ;
#102 = FACE_OUTER_BOUND ( 'NONE', #262, .T. ) ;
#103 = APPROVAL_DATE_TIME ( #277, #285 ) ;
#104 = PRODUCT_DEFINITION_SHAPE ( 'NONE', 'NONE',  #139 ) ;
#105 = CALENDAR_DATE ( 2022, 7, 7 ) ;
#106 = AXIS2_PLACEMENT_3D ( 'NONE', #193, #99, #245 ) ;
#107 = APPROVAL_DATE_TIME ( #158, #246 ) ;
#108 = VERTEX_POINT ( 'NONE', #18 ) ;
#109 = DATE_TIME_ROLE ( 'classification_date' ) ;
#110 = CIRCLE ( 'NONE', #28, 0.1999999999999996503 ) ;
#111 = ORIENTED_EDGE ( 'NONE', *, *, #38, .T. ) ;
#112 = ORIENTED_EDGE ( 'NONE', *, *, #58, .T. ) ;
#113 = UNCERTAINTY_MEASURE_WITH_UNIT (LENGTH_MEASURE( 1.000000000000000082E-05 ), #286, 'distance_accuracy_value', 'NONE');
#114 = AXIS2_PLACEMENT_3D ( 'NONE', #63, #90, #164 ) ;
#115 = DIRECTION ( 'NONE',  ( 1.000000000000000000, 0.000000000000000000, 0.000000000000000000 ) ) ;
#116 = FACE_OUTER_BOUND ( 'NONE', #275, .T. ) ;
#117 = EDGE_LOOP ( 'NONE', ( #16, #157 ) ) ;
#118 = DIRECTION ( 'NONE',  ( 0.000000000000000000, 0.000000000000000000, 1.000000000000000000 ) ) ;
#119 = DIRECTION ( 'NONE',  ( 1.000000000000000000, 0.000000000000000000, 0.000000000000000000 ) ) ;
#120 = PERSON_AND_ORGANIZATION ( #65, #14 ) ;
#121 = FACE_OUTER_BOUND ( 'NONE', #163, .T. ) ;
#122 = DATE_AND_TIME ( #194, #224 ) ;
#123 = CARTESIAN_POINT ( 'NONE',  ( 0.000000000000000000, 0.000000000000000000, 637.0000000000000000 ) ) ;
#124 = CARTESIAN_POINT ( 'NONE',  ( -6.000000000000000888, 0.000000000000000000, 637.0000000000000000 ) ) ;
#125 = CARTESIAN_POINT ( 'NONE',  ( 0.000000000000000000, 0.000000000000000000, 637.0000000000000000 ) ) ;
#126 = CLOSED_SHELL ( 'NONE', ( #134, #231, #84, #25, #143, #195, #279, #152, #304 ) ) ;
#127 = CIRCLE ( 'NONE', #106, 9.000000000000000000 ) ;
#128 = ADVANCED_BREP_SHAPE_REPRESENTATION ( 'a2c9', ( #172, #237 ), #67 ) ;
#129 = DATE_TIME_ROLE ( 'creation_date' ) ;
#130 = PRODUCT_RELATED_PRODUCT_CATEGORY ( 'detail', '', ( #156 ) ) ;
#131 = COORDINATED_UNIVERSAL_TIME_OFFSET ( 1, 0, .AHEAD. ) ;
#132 = AXIS2_PLACEMENT_3D ( 'NONE', #220, #153, #69 ) ;
#133 = PERSON_AND_ORGANIZATION ( #65, #14 ) ;
#134 = ADVANCED_FACE ( 'NONE', ( #116 ), #56, .F. ) ;
#135 = ORIENTED_EDGE ( 'NONE', *, *, #98, .F. ) ;
#136 = AXIS2_PLACEMENT_3D ( 'NONE', #175, #21, #154 ) ;
#137 = VECTOR ( 'NONE', #292, 1000.000000000000000 ) ;
#138 = ORIENTED_EDGE ( 'NONE', *, *, #161, .T. ) ;
#139 = PRODUCT_DEFINITION ( 'NEZNÁMÝ', '', #255, #62 ) ;
#140 = DIRECTION ( 'NONE',  ( 0.000000000000000000, 0.000000000000000000, 1.000000000000000000 ) ) ;
#141 = AXIS2_PLACEMENT_3D ( 'NONE', #94, #7, #248 ) ;
#142 = DIRECTION ( 'NONE',  ( -0.000000000000000000, -0.000000000000000000, -1.000000000000000000 ) ) ;
#143 = ADVANCED_FACE ( 'NONE', ( #66, #290 ), #266, .T. ) ;
#144 = CYLINDRICAL_SURFACE ( 'NONE', #284, 9.000000000000000000 ) ;
#145 = APPLICATION_CONTEXT ( 'configuration controlled 3d designs of mechanical parts and assemblies' ) ;
#146 = CYLINDRICAL_SURFACE ( 'NONE', #132, 6.000000000000000888 ) ;
#147 = PLANE ( 'NONE',  #40 ) ;
#148 = PERSON_AND_ORGANIZATION ( #65, #14 ) ;
#149 = DIRECTION ( 'NONE',  ( 0.000000000000000000, 0.000000000000000000, 1.000000000000000000 ) ) ;
#150 = DIRECTION ( 'NONE',  ( 0.000000000000000000, 0.000000000000000000, 1.000000000000000000 ) ) ;
#151 = PLANE ( 'NONE',  #136 ) ;
#152 = ADVANCED_FACE ( 'NONE', ( #215 ), #147, .T. ) ;
#153 = DIRECTION ( 'NONE',  ( -0.000000000000000000, -0.000000000000000000, -1.000000000000000000 ) ) ;
#154 = DIRECTION ( 'NONE',  ( 1.000000000000000000, 0.000000000000000000, -0.000000000000000000 ) ) ;
#155 = PERSON_AND_ORGANIZATION_ROLE ( 'classification_officer' ) ;
#156 = PRODUCT ( 'a2c9', 'a2c9', '', ( #46 ) ) ;
#157 = ORIENTED_EDGE ( 'NONE', *, *, #50, .T. ) ;
#158 = DATE_AND_TIME ( #12, #79 ) ;
#159 = ORIENTED_EDGE ( 'NONE', *, *, #64, .F. ) ;
#160 = ORIENTED_EDGE ( 'NONE', *, *, #263, .T. ) ;
#161 = EDGE_CURVE ( 'NONE', #256, #167, #6, .T. ) ;
#162 = VERTEX_POINT ( 'NONE', #170 ) ;
#163 = EDGE_LOOP ( 'NONE', ( #159, #254 ) ) ;
#164 = DIRECTION ( 'NONE',  ( -1.000000000000000000, 0.000000000000000000, 0.000000000000000000 ) ) ;
#165 = VECTOR ( 'NONE', #101, 1000.000000000000000 ) ;
#166 = VERTEX_POINT ( 'NONE', #24 ) ;
#167 = VERTEX_POINT ( 'NONE', #269 ) ;
#168 = DIRECTION ( 'NONE',  ( 1.000000000000000000, 0.000000000000000000, 0.000000000000000000 ) ) ;
#169 = PERSON_AND_ORGANIZATION_ROLE ( 'creator' ) ;
#170 = CARTESIAN_POINT ( 'NONE',  ( 9.000000000000000000, 1.102182119232617714E-15, 7.000000000000000000 ) ) ;
#171 = CC_DESIGN_DATE_AND_TIME_ASSIGNMENT ( #8, #129, ( #139 ) ) ;
#172 = MANIFOLD_SOLID_BREP ( 'Zaoblit1', #126 ) ;
#173 = AXIS2_PLACEMENT_3D ( 'NONE', #123, #198, #47 ) ;
#174 = LINE ( 'NONE', #124, #165 ) ;
#175 = CARTESIAN_POINT ( 'NONE',  ( 0.000000000000000000, 0.000000000000000000, 0.000000000000000000 ) ) ;
#176 = COORDINATED_UNIVERSAL_TIME_OFFSET ( 1, 0, .AHEAD. ) ;
#177 = EDGE_CURVE ( 'NONE', #273, #10, #110, .T. ) ;
#178 = PERSON_AND_ORGANIZATION_ROLE ( 'creator' ) ;
#179 = PERSON_AND_ORGANIZATION_ROLE ( 'design_supplier' ) ;
#180 = ORIENTED_EDGE ( 'NONE', *, *, #161, .F. ) ;
#181 = EDGE_LOOP ( 'NONE', ( #236, #228, #35, #276 ) ) ;
#182 = APPROVAL ( #216, 'NEURÈENÝ' ) ;
#183 = AXIS2_PLACEMENT_3D ( 'NONE', #305, #142, #238 ) ;
#184 = CIRCLE ( 'NONE', #199, 6.000000000000000888 ) ;
#185 = EDGE_CURVE ( 'NONE', #13, #108, #232, .T. ) ;
#186 = EDGE_LOOP ( 'NONE', ( #302, #81, #33, #206 ) ) ;
#187 = DIRECTION ( 'NONE',  ( 1.000000000000000000, 0.000000000000000000, 0.000000000000000000 ) ) ;
#188 = DIRECTION ( 'NONE',  ( 1.000000000000000000, 0.000000000000000000, 0.000000000000000000 ) ) ;
#189 = CC_DESIGN_DATE_AND_TIME_ASSIGNMENT ( #30, #109, ( #278 ) ) ;
#190 = CARTESIAN_POINT ( 'NONE',  ( 0.000000000000000000, 0.000000000000000000, 7.199999999999984190 ) ) ;
#191 = ORIENTED_EDGE ( 'NONE', *, *, #58, .F. ) ;
#192 =( NAMED_UNIT ( * ) SI_UNIT ( $, .STERADIAN. ) SOLID_ANGLE_UNIT ( ) );
#193 = CARTESIAN_POINT ( 'NONE',  ( 0.000000000000000000, 0.000000000000000000, 7.000000000000000000 ) ) ;
#194 = CALENDAR_DATE ( 2022, 7, 7 ) ;
#195 = ADVANCED_FACE ( 'NONE', ( #121 ), #151, .F. ) ;
#196 = LINE ( 'NONE', #293, #137 ) ;
#197 = CARTESIAN_POINT ( 'NONE',  ( -6.000000000000000888, 0.000000000000000000, 7.199999999999984190 ) ) ;
#198 = DIRECTION ( 'NONE',  ( -0.000000000000000000, -0.000000000000000000, -1.000000000000000000 ) ) ;
#199 = AXIS2_PLACEMENT_3D ( 'NONE', #76, #48, #97 ) ;
#200 = CARTESIAN_POINT ( 'NONE',  ( -6.200000000000001066, 7.592810154713590821E-16, 7.199999999999984190 ) ) ;
#201 = EDGE_CURVE ( 'NONE', #273, #13, #306, .T. ) ;
#202 = AXIS2_PLACEMENT_3D ( 'NONE', #70, #149, #168 ) ;
#203 = AXIS2_PLACEMENT_3D ( 'NONE', #190, #118, #3 ) ;
#204 = PERSON_AND_ORGANIZATION ( #65, #14 ) ;
#205 = CC_DESIGN_PERSON_AND_ORGANIZATION_ASSIGNMENT ( #148, #242, ( #156 ) ) ;
#206 = ORIENTED_EDGE ( 'NONE', *, *, #64, .T. ) ;
#207 = CC_DESIGN_PERSON_AND_ORGANIZATION_ASSIGNMENT ( #204, #155, ( #278 ) ) ;
#208 = ORIENTED_EDGE ( 'NONE', *, *, #297, .T. ) ;
#209 = DIRECTION ( 'NONE',  ( -0.000000000000000000, -0.000000000000000000, -1.000000000000000000 ) ) ;
#210 = AXIS2_PLACEMENT_3D ( 'NONE', #300, #209, #187 ) ;
#211 = APPROVAL_PERSON_ORGANIZATION ( #54, #285, #52 ) ;
#212 = CARTESIAN_POINT ( 'NONE',  ( 9.000000000000000000, 1.102182119232617714E-15, 7.000000000000000000 ) ) ;
#213 = DIRECTION ( 'NONE',  ( -0.000000000000000000, -0.000000000000000000, -1.000000000000000000 ) ) ;
#214 = ORIENTED_EDGE ( 'NONE', *, *, #258, .F. ) ;
#215 = FACE_OUTER_BOUND ( 'NONE', #53, .T. ) ;
#216 = APPROVAL_STATUS ( 'not_yet_approved' ) ;
#217 = CARTESIAN_POINT ( 'NONE',  ( 0.000000000000000000, 0.000000000000000000, 0.000000000000000000 ) ) ;
#218 = DIRECTION ( 'NONE',  ( 1.000000000000000000, 0.000000000000000000, 0.000000000000000000 ) ) ;
#219 = APPLICATION_CONTEXT ( 'configuration controlled 3d designs of mechanical parts and assemblies' ) ;
#220 = CARTESIAN_POINT ( 'NONE',  ( 0.000000000000000000, 0.000000000000000000, 637.0000000000000000 ) ) ;
#221 = AXIS2_PLACEMENT_3D ( 'NONE', #125, #243, #218 ) ;
#222 = EDGE_CURVE ( 'NONE', #287, #162, #127, .T. ) ;
#223 = DIRECTION ( 'NONE',  ( 0.000000000000000000, -1.000000000000000000, 0.000000000000000000 ) ) ;
#224 = LOCAL_TIME ( 11, 46, 2.000000000000000000, #95 ) ;
#225 = COORDINATED_UNIVERSAL_TIME_OFFSET ( 1, 0, .AHEAD. ) ;
#226 = APPROVAL_STATUS ( 'not_yet_approved' ) ;
#227 = SECURITY_CLASSIFICATION_LEVEL ( 'unclassified' ) ;
#228 = ORIENTED_EDGE ( 'NONE', *, *, #75, .T. ) ;
#229 = PERSON_AND_ORGANIZATION ( #65, #14 ) ;
#230 = ORIENTED_EDGE ( 'NONE', *, *, #263, .F. ) ;
#231 = ADVANCED_FACE ( 'NONE', ( #102 ), #4, .T. ) ;
#232 = CIRCLE ( 'NONE', #272, 0.1999999999999996503 ) ;
#233 = CIRCLE ( 'NONE', #83, 9.000000000000000000 ) ;
#234 = ORIENTED_EDGE ( 'NONE', *, *, #201, .F. ) ;
#235 = CARTESIAN_POINT ( 'NONE',  ( 0.000000000000000000, 0.000000000000000000, 7.000000000000000000 ) ) ;
#236 = ORIENTED_EDGE ( 'NONE', *, *, #38, .F. ) ;
#237 = AXIS2_PLACEMENT_3D ( 'NONE', #267, #244, #265 ) ;
#238 = DIRECTION ( 'NONE',  ( 1.000000000000000000, 0.000000000000000000, 0.000000000000000000 ) ) ;
#239 = FACE_OUTER_BOUND ( 'NONE', #181, .T. ) ;
#240 = CARTESIAN_POINT ( 'NONE',  ( 0.000000000000000000, 0.000000000000000000, 637.0000000000000000 ) ) ;
#241 = EDGE_CURVE ( 'NONE', #87, #166, #233, .T. ) ;
#242 = PERSON_AND_ORGANIZATION_ROLE ( 'design_owner' ) ;
#243 = DIRECTION ( 'NONE',  ( 0.000000000000000000, 0.000000000000000000, 1.000000000000000000 ) ) ;
#244 = DIRECTION ( 'NONE',  ( 0.000000000000000000, 0.000000000000000000, 1.000000000000000000 ) ) ;
#245 = DIRECTION ( 'NONE',  ( 1.000000000000000000, 0.000000000000000000, 0.000000000000000000 ) ) ;
#246 = APPROVAL ( #253, 'NEURÈENÝ' ) ;
#247 = FACE_OUTER_BOUND ( 'NONE', #281, .T. ) ;
#248 = DIRECTION ( 'NONE',  ( 1.000000000000000000, 0.000000000000000000, -0.000000000000000000 ) ) ;
#249 = CIRCLE ( 'NONE', #210, 6.200000000000001066 ) ;
#250 = EDGE_CURVE ( 'NONE', #287, #166, #196, .T. ) ;
#251 = EDGE_LOOP ( 'NONE', ( #92, #111 ) ) ;
#252 = VECTOR ( 'NONE', #213, 1000.000000000000000 ) ;
#253 = APPROVAL_STATUS ( 'not_yet_approved' ) ;
#254 = ORIENTED_EDGE ( 'NONE', *, *, #241, .F. ) ;
#255 = PRODUCT_DEFINITION_FORMATION_WITH_SPECIFIED_SOURCE ( 'LIBOVOLNÝ', '', #156, .NOT_KNOWN. ) ;
#256 = VERTEX_POINT ( 'NONE', #49 ) ;
#257 = ORIENTED_EDGE ( 'NONE', *, *, #201, .T. ) ;
#258 = EDGE_CURVE ( 'NONE', #13, #273, #59, .T. ) ;
#259 = CARTESIAN_POINT ( 'NONE',  ( 6.000000000000000888, 7.347880794884120722E-16, 637.0000000000000000 ) ) ;
#260 = CIRCLE ( 'NONE', #183, 6.200000000000001066 ) ;
#261 = CC_DESIGN_APPROVAL ( #246, ( #255 ) ) ;
#262 = EDGE_LOOP ( 'NONE', ( #296, #112, #36, #230 ) ) ;
#263 = EDGE_CURVE ( 'NONE', #256, #273, #174, .T. ) ;
#264 = FACE_OUTER_BOUND ( 'NONE', #186, .T. ) ;
#265 = DIRECTION ( 'NONE',  ( 1.000000000000000000, 0.000000000000000000, 0.000000000000000000 ) ) ;
#266 = PLANE ( 'NONE',  #141 ) ;
#267 = CARTESIAN_POINT ( 'NONE',  ( 0.000000000000000000, 0.000000000000000000, 0.000000000000000000 ) ) ;
#268 = LOCAL_TIME ( 11, 46, 2.000000000000000000, #131 ) ;
#269 = CARTESIAN_POINT ( 'NONE',  ( 6.000000000000000888, 7.347880794884120722E-16, 637.0000000000000000 ) ) ;
#270 = FACE_OUTER_BOUND ( 'NONE', #61, .T. ) ;
#271 = CARTESIAN_POINT ( 'NONE',  ( 0.000000000000000000, 0.000000000000000000, 7.199999999999984190 ) ) ;
#272 = AXIS2_PLACEMENT_3D ( 'NONE', #26, #223, #307 ) ;
#273 = VERTEX_POINT ( 'NONE', #197 ) ;
#274 = CALENDAR_DATE ( 2022, 7, 7 ) ;
#275 = EDGE_LOOP ( 'NONE', ( #234, #60, #135, #68 ) ) ;
#276 = ORIENTED_EDGE ( 'NONE', *, *, #250, .F. ) ;
#277 = DATE_AND_TIME ( #31, #73 ) ;
#278 = SECURITY_CLASSIFICATION ( '', '', #227 ) ;
#279 = ADVANCED_FACE ( 'NONE', ( #270 ), #146, .T. ) ;
#280 = CARTESIAN_POINT ( 'NONE',  ( 0.000000000000000000, 0.000000000000000000, 0.000000000000000000 ) ) ;
#281 = EDGE_LOOP ( 'NONE', ( #82, #214, #19, #15 ) ) ;
#282 = CYLINDRICAL_SURFACE ( 'NONE', #114, 9.000000000000000000 ) ;
#283 = DIRECTION ( 'NONE',  ( -1.000000000000000000, 0.000000000000000000, 0.000000000000000000 ) ) ;
#284 = AXIS2_PLACEMENT_3D ( 'NONE', #235, #37, #283 ) ;
#285 = APPROVAL ( #226, 'NEURÈENÝ' ) ;
#286 =( LENGTH_UNIT ( ) NAMED_UNIT ( * ) SI_UNIT ( .MILLI., .METRE. ) );
#287 = VERTEX_POINT ( 'NONE', #91 ) ;
#288 = DIRECTION ( 'NONE',  ( 1.000000000000000000, 0.000000000000000000, -0.000000000000000000 ) ) ;
#289 = APPROVAL_DATE_TIME ( #122, #182 ) ;
#290 = FACE_OUTER_BOUND ( 'NONE', #251, .T. ) ;
#291 = CIRCLE ( 'NONE', #51, 9.000000000000000000 ) ;
#292 = DIRECTION ( 'NONE',  ( -0.000000000000000000, -0.000000000000000000, -1.000000000000000000 ) ) ;
#293 = CARTESIAN_POINT ( 'NONE',  ( -9.000000000000000000, 0.000000000000000000, 7.000000000000000000 ) ) ;
#294 = SHAPE_DEFINITION_REPRESENTATION ( #104, #128 ) ;
#295 = COORDINATED_UNIVERSAL_TIME_OFFSET ( 1, 0, .AHEAD. ) ;
#296 = ORIENTED_EDGE ( 'NONE', *, *, #297, .F. ) ;
#297 = EDGE_CURVE ( 'NONE', #167, #256, #184, .T. ) ;
#298 = CC_DESIGN_APPROVAL ( #285, ( #278 ) ) ;
#299 = DIRECTION ( 'NONE',  ( 0.000000000000000000, 0.000000000000000000, 1.000000000000000000 ) ) ;
#300 = CARTESIAN_POINT ( 'NONE',  ( 0.000000000000000000, 0.000000000000000000, 7.000000000000000000 ) ) ;
#301 = APPROVAL_PERSON_ORGANIZATION ( #11, #246, #34 ) ;
#302 = ORIENTED_EDGE ( 'NONE', *, *, #75, .F. ) ;
#303 = LINE ( 'NONE', #212, #5 ) ;
#304 = ADVANCED_FACE ( 'NONE', ( #247 ), #57, .F. ) ;
#305 = CARTESIAN_POINT ( 'NONE',  ( 0.000000000000000000, 0.000000000000000000, 7.000000000000000000 ) ) ;
#306 = CIRCLE ( 'NONE', #22, 6.000000000000000888 ) ;
#307 = DIRECTION ( 'NONE',  ( 0.000000000000000000, 0.000000000000000000, -1.000000000000000000 ) ) ;
ENDSEC;
END-ISO-10303-21;
