ISO-10303-21;
HEADER;
FILE_DESCRIPTION (( 'STEP AP203' ),
    '1' );
FILE_NAME ('1d11.STEP',
    '2023-02-12T10:26:12',
    ( '' ),
    ( '' ),
    'SwSTEP 2.0',
    'SolidWorks 2019',
    '' );
FILE_SCHEMA (( 'CONFIG_CONTROL_DESIGN' ));
ENDSEC;

DATA;
#1 = VERTEX_POINT ( 'NONE', #224 ) ;
#2 = AXIS2_PLACEMENT_3D ( 'NONE', #182, #83, #6 ) ;
#3 = APPROVAL ( #142, 'NEURÈENÝ' ) ;
#4 = DATE_TIME_ROLE ( 'creation_date' ) ;
#5 = ORIENTED_EDGE ( 'NONE', *, *, #173, .F. ) ;
#6 = DIRECTION ( 'NONE',  ( -1.000000000000000000, 0.000000000000000000, 0.000000000000000000 ) ) ;
#7 = EDGE_LOOP ( 'NONE', ( #222, #240 ) ) ;
#8 = CARTESIAN_POINT ( 'NONE',  ( 16.00000000000000000, 1.959434878635765131E-15, 315.0000000000000000 ) ) ;
#9 = DIRECTION ( 'NONE',  ( -0.000000000000000000, -0.000000000000000000, -1.000000000000000000 ) ) ;
#10 = CC_DESIGN_PERSON_AND_ORGANIZATION_ASSIGNMENT ( #158, #139, ( #201 ) ) ;
#11 = VERTEX_POINT ( 'NONE', #107 ) ;
#12 = DIRECTION ( 'NONE',  ( -1.000000000000000000, 0.000000000000000000, 0.000000000000000000 ) ) ;
#13 = CARTESIAN_POINT ( 'NONE',  ( 0.000000000000000000, 0.000000000000000000, 10.00000000000000000 ) ) ;
#14 = CARTESIAN_POINT ( 'NONE',  ( 0.000000000000000000, 0.000000000000000000, 10.00000000000000000 ) ) ;
#15 = LINE ( 'NONE', #208, #59 ) ;
#16 = PERSON_AND_ORGANIZATION ( #115, #129 ) ;
#17 = APPROVAL ( #197, 'NEURÈENÝ' ) ;
#18 = SHAPE_DEFINITION_REPRESENTATION ( #76, #71 ) ;
#19 = COORDINATED_UNIVERSAL_TIME_OFFSET ( 1, 0, .AHEAD. ) ;
#20 = FACE_OUTER_BOUND ( 'NONE', #127, .T. ) ;
#21 = FACE_OUTER_BOUND ( 'NONE', #7, .T. ) ;
#22 = ORIENTED_EDGE ( 'NONE', *, *, #123, .F. ) ;
#23 = VECTOR ( 'NONE', #51, 1000.000000000000000 ) ;
#24 = CARTESIAN_POINT ( 'NONE',  ( -20.00000000000000000, 0.000000000000000000, 10.00000000000000000 ) ) ;
#25 = PRODUCT_DEFINITION ( 'NEZNÁMÝ', '', #165, #119 ) ;
#26 = ORIENTED_EDGE ( 'NONE', *, *, #123, .T. ) ;
#27 = CIRCLE ( 'NONE', #174, 16.00000000000000000 ) ;
#28 =( NAMED_UNIT ( * ) SI_UNIT ( $, .STERADIAN. ) SOLID_ANGLE_UNIT ( ) );
#29 = DIRECTION ( 'NONE',  ( 0.000000000000000000, 0.000000000000000000, 1.000000000000000000 ) ) ;
#30 = CARTESIAN_POINT ( 'NONE',  ( 0.000000000000000000, 0.000000000000000000, 10.00000000000000000 ) ) ;
#31 = DIRECTION ( 'NONE',  ( 1.000000000000000000, 0.000000000000000000, 0.000000000000000000 ) ) ;
#32 = SECURITY_CLASSIFICATION ( '', '', #96 ) ;
#33 = CC_DESIGN_PERSON_AND_ORGANIZATION_ASSIGNMENT ( #235, #34, ( #25 ) ) ;
#34 = PERSON_AND_ORGANIZATION_ROLE ( 'creator' ) ;
#35 = APPROVAL_ROLE ( '' ) ;
#36 = DATE_AND_TIME ( #218, #67 ) ;
#37 = DATE_AND_TIME ( #177, #164 ) ;
#38 = DIRECTION ( 'NONE',  ( -1.000000000000000000, 0.000000000000000000, 0.000000000000000000 ) ) ;
#39 = APPROVAL_PERSON_ORGANIZATION ( #237, #17, #35 ) ;
#40 = VERTEX_POINT ( 'NONE', #24 ) ;
#41 = ORIENTED_EDGE ( 'NONE', *, *, #103, .F. ) ;
#42 = UNCERTAINTY_MEASURE_WITH_UNIT (LENGTH_MEASURE( 1.000000000000000082E-05 ), #95, 'distance_accuracy_value', 'NONE');
#43 = VERTEX_POINT ( 'NONE', #241 ) ;
#44 = EDGE_CURVE ( 'NONE', #1, #43, #92, .T. ) ;
#45 = VERTEX_POINT ( 'NONE', #8 ) ;
#46 = PLANE ( 'NONE',  #120 ) ;
#47 = DIRECTION ( 'NONE',  ( 0.000000000000000000, 0.000000000000000000, 1.000000000000000000 ) ) ;
#48 = APPROVAL_PERSON_ORGANIZATION ( #159, #82, #56 ) ;
#49 = DIRECTION ( 'NONE',  ( -0.000000000000000000, -0.000000000000000000, -1.000000000000000000 ) ) ;
#50 = LOCAL_TIME ( 11, 26, 12.00000000000000000, #118 ) ;
#51 = DIRECTION ( 'NONE',  ( -0.000000000000000000, -0.000000000000000000, -1.000000000000000000 ) ) ;
#52 =( NAMED_UNIT ( * ) PLANE_ANGLE_UNIT ( ) SI_UNIT ( $, .RADIAN. ) );
#53 = ADVANCED_FACE ( 'NONE', ( #145 ), #147, .T. ) ;
#54 = DIRECTION ( 'NONE',  ( 1.000000000000000000, 0.000000000000000000, 0.000000000000000000 ) ) ;
#55 = APPROVAL_STATUS ( 'not_yet_approved' ) ;
#56 = APPROVAL_ROLE ( '' ) ;
#57 = ORIENTED_EDGE ( 'NONE', *, *, #103, .T. ) ;
#58 = DIRECTION ( 'NONE',  ( 1.000000000000000000, 0.000000000000000000, 0.000000000000000000 ) ) ;
#59 = VECTOR ( 'NONE', #49, 1000.000000000000000 ) ;
#60 = CARTESIAN_POINT ( 'NONE',  ( 16.00000000000000000, 1.959434878635765131E-15, 10.00000000000000000 ) ) ;
#61 = LOCAL_TIME ( 11, 26, 12.00000000000000000, #74 ) ;
#62 = EDGE_LOOP ( 'NONE', ( #57, #81 ) ) ;
#63 = EDGE_CURVE ( 'NONE', #43, #1, #116, .T. ) ;
#64 = EDGE_LOOP ( 'NONE', ( #225, #5, #26, #79 ) ) ;
#65 = AXIS2_PLACEMENT_3D ( 'NONE', #200, #87, #202 ) ;
#66 = ORIENTED_EDGE ( 'NONE', *, *, #173, .T. ) ;
#67 = LOCAL_TIME ( 11, 26, 12.00000000000000000, #19 ) ;
#68 = DIRECTION ( 'NONE',  ( 0.000000000000000000, 0.000000000000000000, 1.000000000000000000 ) ) ;
#69 = CARTESIAN_POINT ( 'NONE',  ( 0.000000000000000000, 0.000000000000000000, 10.00000000000000000 ) ) ;
#70 = CARTESIAN_POINT ( 'NONE',  ( 0.000000000000000000, 0.000000000000000000, 315.0000000000000000 ) ) ;
#71 = ADVANCED_BREP_SHAPE_REPRESENTATION ( '1d11', ( #113, #198 ), #109 ) ;
#72 = CYLINDRICAL_SURFACE ( 'NONE', #184, 16.00000000000000000 ) ;
#73 = ADVANCED_FACE ( 'NONE', ( #20 ), #105, .T. ) ;
#74 = COORDINATED_UNIVERSAL_TIME_OFFSET ( 1, 0, .AHEAD. ) ;
#75 = APPROVAL_DATE_TIME ( #36, #17 ) ;
#76 = PRODUCT_DEFINITION_SHAPE ( 'NONE', 'NONE',  #25 ) ;
#77 = MECHANICAL_CONTEXT ( 'NONE', #108, 'mechanical' ) ;
#78 = AXIS2_PLACEMENT_3D ( 'NONE', #221, #110, #38 ) ;
#79 = ORIENTED_EDGE ( 'NONE', *, *, #44, .T. ) ;
#80 = PERSON_AND_ORGANIZATION ( #115, #129 ) ;
#81 = ORIENTED_EDGE ( 'NONE', *, *, #223, .T. ) ;
#82 = APPROVAL ( #55, 'NEURÈENÝ' ) ;
#83 = DIRECTION ( 'NONE',  ( -0.000000000000000000, -0.000000000000000000, -1.000000000000000000 ) ) ;
#84 = AXIS2_PLACEMENT_3D ( 'NONE', #172, #29, #151 ) ;
#85 = LINE ( 'NONE', #186, #112 ) ;
#86 = EDGE_CURVE ( 'NONE', #45, #89, #162, .T. ) ;
#87 = DIRECTION ( 'NONE',  ( 0.000000000000000000, 0.000000000000000000, 1.000000000000000000 ) ) ;
#88 = CARTESIAN_POINT ( 'NONE',  ( 20.00000000000000000, 2.449293598294706513E-15, 10.00000000000000000 ) ) ;
#89 = VERTEX_POINT ( 'NONE', #60 ) ;
#90 = CC_DESIGN_APPROVAL ( #82, ( #165 ) ) ;
#91 = DIRECTION ( 'NONE',  ( 1.000000000000000000, 0.000000000000000000, -0.000000000000000000 ) ) ;
#92 = CIRCLE ( 'NONE', #152, 20.00000000000000000 ) ;
#93 = DIRECTION ( 'NONE',  ( 1.000000000000000000, 0.000000000000000000, 0.000000000000000000 ) ) ;
#94 = ADVANCED_FACE ( 'NONE', ( #21 ), #146, .F. ) ;
#95 =( LENGTH_UNIT ( ) NAMED_UNIT ( * ) SI_UNIT ( .MILLI., .METRE. ) );
#96 = SECURITY_CLASSIFICATION_LEVEL ( 'unclassified' ) ;
#97 = PERSON_AND_ORGANIZATION_ROLE ( 'design_supplier' ) ;
#98 = AXIS2_PLACEMENT_3D ( 'NONE', #69, #136, #253 ) ;
#99 = CC_DESIGN_SECURITY_CLASSIFICATION ( #32, ( #165 ) ) ;
#100 = EDGE_CURVE ( 'NONE', #101, #43, #85, .T. ) ;
#101 = VERTEX_POINT ( 'NONE', #88 ) ;
#102 = COORDINATED_UNIVERSAL_TIME_OFFSET ( 1, 0, .AHEAD. ) ;
#103 = EDGE_CURVE ( 'NONE', #227, #45, #27, .T. ) ;
#104 = CIRCLE ( 'NONE', #188, 16.00000000000000000 ) ;
#105 = CYLINDRICAL_SURFACE ( 'NONE', #2, 20.00000000000000000 ) ;
#106 = CARTESIAN_POINT ( 'NONE',  ( 0.000000000000000000, 0.000000000000000000, 0.000000000000000000 ) ) ;
#107 = CARTESIAN_POINT ( 'NONE',  ( -16.00000000000000000, 0.000000000000000000, 10.00000000000000000 ) ) ;
#108 = APPLICATION_CONTEXT ( 'configuration controlled 3d designs of mechanical parts and assemblies' ) ;
#109 =( GEOMETRIC_REPRESENTATION_CONTEXT ( 3 ) GLOBAL_UNCERTAINTY_ASSIGNED_CONTEXT ( ( #42 ) ) GLOBAL_UNIT_ASSIGNED_CONTEXT ( ( #95, #52, #28 ) ) REPRESENTATION_CONTEXT ( 'NONE', 'WORKASPACE' ) );
#110 = DIRECTION ( 'NONE',  ( -0.000000000000000000, -0.000000000000000000, -1.000000000000000000 ) ) ;
#111 = ORIENTED_EDGE ( 'NONE', *, *, #86, .T. ) ;
#112 = VECTOR ( 'NONE', #9, 1000.000000000000000 ) ;
#113 = MANIFOLD_SOLID_BREP ( 'Pøidat vysunutím3', #170 ) ;
#114 = DIRECTION ( 'NONE',  ( 0.000000000000000000, 0.000000000000000000, 1.000000000000000000 ) ) ;
#115 = PERSON ( 'NEURÈENÝ', 'NEURÈENÝ', 'NEURÈENÝ', ('NEURÈENÝ'), ('NEURÈENÝ'), ('NEURÈENÝ') ) ;
#116 = CIRCLE ( 'NONE', #65, 20.00000000000000000 ) ;
#117 = CYLINDRICAL_SURFACE ( 'NONE', #176, 20.00000000000000000 ) ;
#118 = COORDINATED_UNIVERSAL_TIME_OFFSET ( 1, 0, .AHEAD. ) ;
#119 = DESIGN_CONTEXT ( 'detailed design', #230, 'design' ) ;
#120 = AXIS2_PLACEMENT_3D ( 'NONE', #30, #114, #91 ) ;
#121 = DATE_AND_TIME ( #236, #61 ) ;
#122 = COORDINATED_UNIVERSAL_TIME_OFFSET ( 1, 0, .AHEAD. ) ;
#123 = EDGE_CURVE ( 'NONE', #40, #1, #15, .T. ) ;
#124 = ORIENTED_EDGE ( 'NONE', *, *, #239, .T. ) ;
#125 = ORIENTED_EDGE ( 'NONE', *, *, #178, .T. ) ;
#126 = DIRECTION ( 'NONE',  ( 0.000000000000000000, 0.000000000000000000, 1.000000000000000000 ) ) ;
#127 = EDGE_LOOP ( 'NONE', ( #180, #187, #149, #22 ) ) ;
#128 = ORIENTED_EDGE ( 'NONE', *, *, #131, .F. ) ;
#129 = ORGANIZATION ( 'NEURÈENÝ', 'NEURÈENÝ', '' ) ;
#130 = ORIENTED_EDGE ( 'NONE', *, *, #86, .F. ) ;
#131 = EDGE_CURVE ( 'NONE', #11, #89, #207, .T. ) ;
#132 = DIRECTION ( 'NONE',  ( 0.000000000000000000, 0.000000000000000000, 1.000000000000000000 ) ) ;
#133 = CIRCLE ( 'NONE', #157, 20.00000000000000000 ) ;
#134 = DIRECTION ( 'NONE',  ( 1.000000000000000000, 0.000000000000000000, 0.000000000000000000 ) ) ;
#135 = ADVANCED_FACE ( 'NONE', ( #153 ), #211, .T. ) ;
#136 = DIRECTION ( 'NONE',  ( 0.000000000000000000, 0.000000000000000000, 1.000000000000000000 ) ) ;
#137 = CARTESIAN_POINT ( 'NONE',  ( 0.000000000000000000, 0.000000000000000000, 10.00000000000000000 ) ) ;
#138 = PERSON_AND_ORGANIZATION ( #115, #129 ) ;
#139 = PERSON_AND_ORGANIZATION_ROLE ( 'design_owner' ) ;
#140 = DATE_TIME_ROLE ( 'classification_date' ) ;
#141 = CIRCLE ( 'NONE', #226, 20.00000000000000000 ) ;
#142 = APPROVAL_STATUS ( 'not_yet_approved' ) ;
#143 = ADVANCED_FACE ( 'NONE', ( #169, #229 ), #46, .T. ) ;
#144 = EDGE_LOOP ( 'NONE', ( #128, #163 ) ) ;
#145 = FACE_OUTER_BOUND ( 'NONE', #242, .T. ) ;
#146 = PLANE ( 'NONE',  #219 ) ;
#147 = CYLINDRICAL_SURFACE ( 'NONE', #78, 16.00000000000000000 ) ;
#148 = EDGE_LOOP ( 'NONE', ( #130, #41, #125, #205 ) ) ;
#149 = ORIENTED_EDGE ( 'NONE', *, *, #63, .T. ) ;
#150 = CARTESIAN_POINT ( 'NONE',  ( 0.000000000000000000, 0.000000000000000000, 315.0000000000000000 ) ) ;
#151 = DIRECTION ( 'NONE',  ( 1.000000000000000000, 0.000000000000000000, -0.000000000000000000 ) ) ;
#152 = AXIS2_PLACEMENT_3D ( 'NONE', #185, #126, #58 ) ;
#153 = FACE_OUTER_BOUND ( 'NONE', #62, .T. ) ;
#154 = CARTESIAN_POINT ( 'NONE',  ( -16.00000000000000000, 0.000000000000000000, 315.0000000000000000 ) ) ;
#155 = PERSON_AND_ORGANIZATION_ROLE ( 'creator' ) ;
#156 = PRODUCT_RELATED_PRODUCT_CATEGORY ( 'detail', '', ( #201 ) ) ;
#157 = AXIS2_PLACEMENT_3D ( 'NONE', #137, #234, #212 ) ;
#158 = PERSON_AND_ORGANIZATION ( #115, #129 ) ;
#159 = PERSON_AND_ORGANIZATION ( #115, #129 ) ;
#160 = CALENDAR_DATE ( 2023, 12, 2 ) ;
#161 = ORIENTED_EDGE ( 'NONE', *, *, #178, .F. ) ;
#162 = LINE ( 'NONE', #243, #220 ) ;
#163 = ORIENTED_EDGE ( 'NONE', *, *, #233, .F. ) ;
#164 = LOCAL_TIME ( 11, 26, 12.00000000000000000, #102 ) ;
#165 = PRODUCT_DEFINITION_FORMATION_WITH_SPECIFIED_SOURCE ( 'LIBOVOLNÝ', '', #201, .NOT_KNOWN. ) ;
#166 = DIRECTION ( 'NONE',  ( -0.000000000000000000, -0.000000000000000000, -1.000000000000000000 ) ) ;
#167 = ADVANCED_FACE ( 'NONE', ( #249 ), #72, .T. ) ;
#168 = CARTESIAN_POINT ( 'NONE',  ( 0.000000000000000000, 0.000000000000000000, 315.0000000000000000 ) ) ;
#169 = FACE_BOUND ( 'NONE', #144, .T. ) ;
#170 = CLOSED_SHELL ( 'NONE', ( #53, #73, #255, #143, #94, #167, #135 ) ) ;
#171 = DIRECTION ( 'NONE',  ( -0.000000000000000000, -0.000000000000000000, -1.000000000000000000 ) ) ;
#172 = CARTESIAN_POINT ( 'NONE',  ( 0.000000000000000000, 0.000000000000000000, 315.0000000000000000 ) ) ;
#173 = EDGE_CURVE ( 'NONE', #40, #101, #141, .T. ) ;
#174 = AXIS2_PLACEMENT_3D ( 'NONE', #168, #68, #134 ) ;
#175 = DATE_AND_TIME ( #160, #181 ) ;
#176 = AXIS2_PLACEMENT_3D ( 'NONE', #13, #191, #12 ) ;
#177 = CALENDAR_DATE ( 2023, 12, 2 ) ;
#178 = EDGE_CURVE ( 'NONE', #227, #11, #251, .T. ) ;
#179 = DIRECTION ( 'NONE',  ( 0.000000000000000000, 0.000000000000000000, 1.000000000000000000 ) ) ;
#180 = ORIENTED_EDGE ( 'NONE', *, *, #239, .F. ) ;
#181 = LOCAL_TIME ( 11, 26, 12.00000000000000000, #122 ) ;
#182 = CARTESIAN_POINT ( 'NONE',  ( 0.000000000000000000, 0.000000000000000000, 10.00000000000000000 ) ) ;
#183 = DIRECTION ( 'NONE',  ( 1.000000000000000000, 0.000000000000000000, -0.000000000000000000 ) ) ;
#184 = AXIS2_PLACEMENT_3D ( 'NONE', #70, #171, #232 ) ;
#185 = CARTESIAN_POINT ( 'NONE',  ( 0.000000000000000000, 0.000000000000000000, 0.000000000000000000 ) ) ;
#186 = CARTESIAN_POINT ( 'NONE',  ( 20.00000000000000000, 2.449293598294706513E-15, 10.00000000000000000 ) ) ;
#187 = ORIENTED_EDGE ( 'NONE', *, *, #100, .T. ) ;
#188 = AXIS2_PLACEMENT_3D ( 'NONE', #150, #246, #228 ) ;
#189 = FACE_OUTER_BOUND ( 'NONE', #64, .T. ) ;
#190 = CARTESIAN_POINT ( 'NONE',  ( -16.00000000000000000, 0.000000000000000000, 315.0000000000000000 ) ) ;
#191 = DIRECTION ( 'NONE',  ( -0.000000000000000000, -0.000000000000000000, -1.000000000000000000 ) ) ;
#192 = CC_DESIGN_APPROVAL ( #3, ( #25 ) ) ;
#193 = CC_DESIGN_DATE_AND_TIME_ASSIGNMENT ( #175, #140, ( #32 ) ) ;
#194 = CARTESIAN_POINT ( 'NONE',  ( 0.000000000000000000, 0.000000000000000000, 10.00000000000000000 ) ) ;
#195 = CALENDAR_DATE ( 2023, 12, 2 ) ;
#196 = AXIS2_PLACEMENT_3D ( 'NONE', #194, #132, #31 ) ;
#197 = APPROVAL_STATUS ( 'not_yet_approved' ) ;
#198 = AXIS2_PLACEMENT_3D ( 'NONE', #231, #179, #54 ) ;
#199 = APPROVAL_DATE_TIME ( #215, #3 ) ;
#200 = CARTESIAN_POINT ( 'NONE',  ( 0.000000000000000000, 0.000000000000000000, 0.000000000000000000 ) ) ;
#201 = PRODUCT ( '1d11', '1d11', '', ( #77 ) ) ;
#202 = DIRECTION ( 'NONE',  ( 1.000000000000000000, 0.000000000000000000, 0.000000000000000000 ) ) ;
#203 = ORIENTED_EDGE ( 'NONE', *, *, #223, .F. ) ;
#204 = CC_DESIGN_PERSON_AND_ORGANIZATION_ASSIGNMENT ( #80, #155, ( #165 ) ) ;
#205 = ORIENTED_EDGE ( 'NONE', *, *, #131, .T. ) ;
#206 = ORIENTED_EDGE ( 'NONE', *, *, #233, .T. ) ;
#207 = CIRCLE ( 'NONE', #196, 16.00000000000000000 ) ;
#208 = CARTESIAN_POINT ( 'NONE',  ( -20.00000000000000000, 0.000000000000000000, 10.00000000000000000 ) ) ;
#209 = CIRCLE ( 'NONE', #98, 16.00000000000000000 ) ;
#210 = CC_DESIGN_APPROVAL ( #17, ( #32 ) ) ;
#211 = PLANE ( 'NONE',  #84 ) ;
#212 = DIRECTION ( 'NONE',  ( 1.000000000000000000, 0.000000000000000000, 0.000000000000000000 ) ) ;
#213 = CC_DESIGN_PERSON_AND_ORGANIZATION_ASSIGNMENT ( #138, #217, ( #32 ) ) ;
#214 = APPROVAL_DATE_TIME ( #121, #82 ) ;
#215 = DATE_AND_TIME ( #195, #50 ) ;
#216 = PERSON_AND_ORGANIZATION ( #115, #129 ) ;
#217 = PERSON_AND_ORGANIZATION_ROLE ( 'classification_officer' ) ;
#218 = CALENDAR_DATE ( 2023, 12, 2 ) ;
#219 = AXIS2_PLACEMENT_3D ( 'NONE', #106, #244, #183 ) ;
#220 = VECTOR ( 'NONE', #166, 1000.000000000000000 ) ;
#221 = CARTESIAN_POINT ( 'NONE',  ( 0.000000000000000000, 0.000000000000000000, 315.0000000000000000 ) ) ;
#222 = ORIENTED_EDGE ( 'NONE', *, *, #44, .F. ) ;
#223 = EDGE_CURVE ( 'NONE', #45, #227, #104, .T. ) ;
#224 = CARTESIAN_POINT ( 'NONE',  ( -20.00000000000000000, 0.000000000000000000, 0.000000000000000000 ) ) ;
#225 = ORIENTED_EDGE ( 'NONE', *, *, #100, .F. ) ;
#226 = AXIS2_PLACEMENT_3D ( 'NONE', #14, #47, #93 ) ;
#227 = VERTEX_POINT ( 'NONE', #154 ) ;
#228 = DIRECTION ( 'NONE',  ( 1.000000000000000000, 0.000000000000000000, 0.000000000000000000 ) ) ;
#229 = FACE_OUTER_BOUND ( 'NONE', #245, .T. ) ;
#230 = APPLICATION_CONTEXT ( 'configuration controlled 3d designs of mechanical parts and assemblies' ) ;
#231 = CARTESIAN_POINT ( 'NONE',  ( 0.000000000000000000, 0.000000000000000000, 0.000000000000000000 ) ) ;
#232 = DIRECTION ( 'NONE',  ( -1.000000000000000000, 0.000000000000000000, 0.000000000000000000 ) ) ;
#233 = EDGE_CURVE ( 'NONE', #89, #11, #209, .T. ) ;
#234 = DIRECTION ( 'NONE',  ( 0.000000000000000000, 0.000000000000000000, 1.000000000000000000 ) ) ;
#235 = PERSON_AND_ORGANIZATION ( #115, #129 ) ;
#236 = CALENDAR_DATE ( 2023, 12, 2 ) ;
#237 = PERSON_AND_ORGANIZATION ( #115, #129 ) ;
#238 = APPLICATION_PROTOCOL_DEFINITION ( 'international standard', 'config_control_design', 1994, #230 ) ;
#239 = EDGE_CURVE ( 'NONE', #101, #40, #133, .T. ) ;
#240 = ORIENTED_EDGE ( 'NONE', *, *, #63, .F. ) ;
#241 = CARTESIAN_POINT ( 'NONE',  ( 20.00000000000000000, 2.449293598294706513E-15, 0.000000000000000000 ) ) ;
#242 = EDGE_LOOP ( 'NONE', ( #203, #111, #206, #161 ) ) ;
#243 = CARTESIAN_POINT ( 'NONE',  ( 16.00000000000000000, 1.959434878635765131E-15, 315.0000000000000000 ) ) ;
#244 = DIRECTION ( 'NONE',  ( 0.000000000000000000, 0.000000000000000000, 1.000000000000000000 ) ) ;
#245 = EDGE_LOOP ( 'NONE', ( #66, #124 ) ) ;
#246 = DIRECTION ( 'NONE',  ( 0.000000000000000000, 0.000000000000000000, 1.000000000000000000 ) ) ;
#247 = CC_DESIGN_PERSON_AND_ORGANIZATION_ASSIGNMENT ( #16, #97, ( #165 ) ) ;
#248 = APPLICATION_PROTOCOL_DEFINITION ( 'international standard', 'config_control_design', 1994, #108 ) ;
#249 = FACE_OUTER_BOUND ( 'NONE', #148, .T. ) ;
#250 = CC_DESIGN_DATE_AND_TIME_ASSIGNMENT ( #37, #4, ( #25 ) ) ;
#251 = LINE ( 'NONE', #190, #23 ) ;
#252 = APPROVAL_PERSON_ORGANIZATION ( #216, #3, #254 ) ;
#253 = DIRECTION ( 'NONE',  ( 1.000000000000000000, 0.000000000000000000, 0.000000000000000000 ) ) ;
#254 = APPROVAL_ROLE ( '' ) ;
#255 = ADVANCED_FACE ( 'NONE', ( #189 ), #117, .T. ) ;
ENDSEC;
END-ISO-10303-21;
