ISO-10303-21;
HEADER;
FILE_DESCRIPTION (( 'STEP AP203' ),
    '1' );
FILE_NAME ('f701.STEP',
    '2023-02-12T10:31:12',
    ( '' ),
    ( '' ),
    'SwSTEP 2.0',
    'SolidWorks 2019',
    '' );
FILE_SCHEMA (( 'CONFIG_CONTROL_DESIGN' ));
ENDSEC;

DATA;
#1 = LINE ( 'NONE', #41, #161 ) ;
#2 = ORIENTED_EDGE ( 'NONE', *, *, #154, .F. ) ;
#3 = AXIS2_PLACEMENT_3D ( 'NONE', #22, #143, #146 ) ;
#4 = DIRECTION ( 'NONE',  ( 0.000000000000000000, 0.000000000000000000, 1.000000000000000000 ) ) ;
#5 = APPROVAL ( #34, 'NEURÈENÝ' ) ;
#6 = CARTESIAN_POINT ( 'NONE',  ( 10.00000000000000000, 1.224646799147353256E-15, 1200.000000000000000 ) ) ;
#7 = AXIS2_PLACEMENT_3D ( 'NONE', #176, #140, #17 ) ;
#8 = EDGE_CURVE ( 'NONE', #77, #94, #216, .T. ) ;
#9 = DIRECTION ( 'NONE',  ( 0.000000000000000000, 0.000000000000000000, 1.000000000000000000 ) ) ;
#10 = PERSON_AND_ORGANIZATION ( #40, #106 ) ;
#11 = PERSON_AND_ORGANIZATION ( #40, #106 ) ;
#12 = EDGE_LOOP ( 'NONE', ( #129, #157, #37, #58 ) ) ;
#13 = CIRCLE ( 'NONE', #54, 10.00000000000000000 ) ;
#14 = PRODUCT_DEFINITION_SHAPE ( 'NONE', 'NONE',  #252 ) ;
#15 = AXIS2_PLACEMENT_3D ( 'NONE', #93, #75, #253 ) ;
#16 = EDGE_CURVE ( 'NONE', #254, #59, #224, .T. ) ;
#17 = DIRECTION ( 'NONE',  ( 1.000000000000000000, 0.000000000000000000, 0.000000000000000000 ) ) ;
#18 = CARTESIAN_POINT ( 'NONE',  ( 0.000000000000000000, 0.000000000000000000, 0.000000000000000000 ) ) ;
#19 = ORIENTED_EDGE ( 'NONE', *, *, #56, .F. ) ;
#20 = AXIS2_PLACEMENT_3D ( 'NONE', #18, #114, #214 ) ;
#21 = LOCAL_TIME ( 11, 31, 12.00000000000000000, #52 ) ;
#22 = CARTESIAN_POINT ( 'NONE',  ( 0.000000000000000000, 0.000000000000000000, 8.000000000000000000 ) ) ;
#23 = ORIENTED_EDGE ( 'NONE', *, *, #35, .F. ) ;
#24 = DIRECTION ( 'NONE',  ( -0.000000000000000000, -0.000000000000000000, -1.000000000000000000 ) ) ;
#25 = APPROVAL ( #31, 'NEURÈENÝ' ) ;
#26 = AXIS2_PLACEMENT_3D ( 'NONE', #222, #46, #202 ) ;
#27 = CYLINDRICAL_SURFACE ( 'NONE', #116, 13.00000000000000178 ) ;
#28 = DIRECTION ( 'NONE',  ( 1.000000000000000000, 0.000000000000000000, 0.000000000000000000 ) ) ;
#29 = PRODUCT_DEFINITION_FORMATION_WITH_SPECIFIED_SOURCE ( 'LIBOVOLNÝ', '', #135, .NOT_KNOWN. ) ;
#30 = CALENDAR_DATE ( 2023, 12, 2 ) ;
#31 = APPROVAL_STATUS ( 'not_yet_approved' ) ;
#32 = AXIS2_PLACEMENT_3D ( 'NONE', #124, #220, #150 ) ;
#33 = PERSON_AND_ORGANIZATION_ROLE ( 'classification_officer' ) ;
#34 = APPROVAL_STATUS ( 'not_yet_approved' ) ;
#35 = EDGE_CURVE ( 'NONE', #194, #235, #70, .T. ) ;
#36 = VECTOR ( 'NONE', #120, 1000.000000000000000 ) ;
#37 = ORIENTED_EDGE ( 'NONE', *, *, #154, .T. ) ;
#38 = APPROVAL_PERSON_ORGANIZATION ( #152, #173, #131 ) ;
#39 = DIRECTION ( 'NONE',  ( 0.000000000000000000, 0.000000000000000000, 1.000000000000000000 ) ) ;
#40 = PERSON ( 'NEURÈENÝ', 'NEURÈENÝ', 'NEURÈENÝ', ('NEURÈENÝ'), ('NEURÈENÝ'), ('NEURÈENÝ') ) ;
#41 = CARTESIAN_POINT ( 'NONE',  ( -13.00000000000000178, 0.000000000000000000, 8.000000000000000000 ) ) ;
#42 = DIRECTION ( 'NONE',  ( 1.000000000000000000, 0.000000000000000000, -0.000000000000000000 ) ) ;
#43 = ORIENTED_EDGE ( 'NONE', *, *, #8, .F. ) ;
#44 = CARTESIAN_POINT ( 'NONE',  ( 13.00000000000000178, 1.592040838891559293E-15, 8.000000000000000000 ) ) ;
#45 = EDGE_CURVE ( 'NONE', #94, #77, #126, .T. ) ;
#46 = DIRECTION ( 'NONE',  ( -0.000000000000000000, -0.000000000000000000, -1.000000000000000000 ) ) ;
#47 =( GEOMETRIC_REPRESENTATION_CONTEXT ( 3 ) GLOBAL_UNCERTAINTY_ASSIGNED_CONTEXT ( ( #74 ) ) GLOBAL_UNIT_ASSIGNED_CONTEXT ( ( #103, #84, #109 ) ) REPRESENTATION_CONTEXT ( 'NONE', 'WORKASPACE' ) );
#48 = CYLINDRICAL_SURFACE ( 'NONE', #26, 10.00000000000000000 ) ;
#49 = CARTESIAN_POINT ( 'NONE',  ( 0.000000000000000000, 0.000000000000000000, 0.000000000000000000 ) ) ;
#50 = ORIENTED_EDGE ( 'NONE', *, *, #107, .T. ) ;
#51 = DATE_AND_TIME ( #55, #234 ) ;
#52 = COORDINATED_UNIVERSAL_TIME_OFFSET ( 1, 0, .AHEAD. ) ;
#53 = COORDINATED_UNIVERSAL_TIME_OFFSET ( 1, 0, .AHEAD. ) ;
#54 = AXIS2_PLACEMENT_3D ( 'NONE', #182, #245, #125 ) ;
#55 = CALENDAR_DATE ( 2023, 12, 2 ) ;
#56 = EDGE_CURVE ( 'NONE', #77, #194, #1, .T. ) ;
#57 = ADVANCED_BREP_SHAPE_REPRESENTATION ( 'f701', ( #230, #118 ), #47 ) ;
#58 = ORIENTED_EDGE ( 'NONE', *, *, #64, .T. ) ;
#59 = VERTEX_POINT ( 'NONE', #98 ) ;
#60 = LOCAL_TIME ( 11, 31, 12.00000000000000000, #249 ) ;
#61 = ORIENTED_EDGE ( 'NONE', *, *, #179, .T. ) ;
#62 = DIRECTION ( 'NONE',  ( 0.000000000000000000, 0.000000000000000000, 1.000000000000000000 ) ) ;
#63 = ORIENTED_EDGE ( 'NONE', *, *, #198, .T. ) ;
#64 = EDGE_CURVE ( 'NONE', #142, #210, #247, .T. ) ;
#65 = LINE ( 'NONE', #82, #96 ) ;
#66 = CARTESIAN_POINT ( 'NONE',  ( 10.00000000000000000, 1.224646799147353256E-15, 8.000000000000000000 ) ) ;
#67 = FACE_OUTER_BOUND ( 'NONE', #237, .T. ) ;
#68 = CARTESIAN_POINT ( 'NONE',  ( 0.000000000000000000, 0.000000000000000000, 8.000000000000000000 ) ) ;
#69 = MECHANICAL_CONTEXT ( 'NONE', #169, 'mechanical' ) ;
#70 = CIRCLE ( 'NONE', #20, 13.00000000000000178 ) ;
#71 = DATE_TIME_ROLE ( 'classification_date' ) ;
#72 = CC_DESIGN_DATE_AND_TIME_ASSIGNMENT ( #209, #92, ( #252 ) ) ;
#73 = DATE_AND_TIME ( #185, #251 ) ;
#74 = UNCERTAINTY_MEASURE_WITH_UNIT (LENGTH_MEASURE( 1.000000000000000082E-05 ), #103, 'distance_accuracy_value', 'NONE');
#75 = DIRECTION ( 'NONE',  ( 0.000000000000000000, 0.000000000000000000, 1.000000000000000000 ) ) ;
#76 = APPROVAL_DATE_TIME ( #134, #173 ) ;
#77 = VERTEX_POINT ( 'NONE', #255 ) ;
#78 = ORIENTED_EDGE ( 'NONE', *, *, #166, .F. ) ;
#79 = DIRECTION ( 'NONE',  ( 1.000000000000000000, 0.000000000000000000, 0.000000000000000000 ) ) ;
#80 = ADVANCED_FACE ( 'NONE', ( #159, #236 ), #215, .T. ) ;
#81 = PLANE ( 'NONE',  #32 ) ;
#82 = CARTESIAN_POINT ( 'NONE',  ( -10.00000000000000000, 0.000000000000000000, 1200.000000000000000 ) ) ;
#83 = PLANE ( 'NONE',  #228 ) ;
#84 =( NAMED_UNIT ( * ) PLANE_ANGLE_UNIT ( ) SI_UNIT ( $, .RADIAN. ) );
#85 = LOCAL_TIME ( 11, 31, 12.00000000000000000, #53 ) ;
#86 = FACE_OUTER_BOUND ( 'NONE', #112, .T. ) ;
#87 = PERSON_AND_ORGANIZATION ( #40, #106 ) ;
#88 = ADVANCED_FACE ( 'NONE', ( #117 ), #195, .T. ) ;
#89 = PERSON_AND_ORGANIZATION_ROLE ( 'design_supplier' ) ;
#90 = CC_DESIGN_APPROVAL ( #173, ( #158 ) ) ;
#91 = EDGE_LOOP ( 'NONE', ( #181, #43, #178, #217 ) ) ;
#92 = DATE_TIME_ROLE ( 'creation_date' ) ;
#93 = CARTESIAN_POINT ( 'NONE',  ( 0.000000000000000000, 0.000000000000000000, 8.000000000000000000 ) ) ;
#94 = VERTEX_POINT ( 'NONE', #184 ) ;
#95 = DIRECTION ( 'NONE',  ( 1.000000000000000000, 0.000000000000000000, 0.000000000000000000 ) ) ;
#96 = VECTOR ( 'NONE', #145, 1000.000000000000000 ) ;
#97 = ORIENTED_EDGE ( 'NONE', *, *, #45, .F. ) ;
#98 = CARTESIAN_POINT ( 'NONE',  ( 10.00000000000000000, 1.224646799147353256E-15, 1200.000000000000000 ) ) ;
#99 = DIRECTION ( 'NONE',  ( 1.000000000000000000, 0.000000000000000000, 0.000000000000000000 ) ) ;
#100 = CIRCLE ( 'NONE', #239, 13.00000000000000178 ) ;
#101 = LINE ( 'NONE', #6, #122 ) ;
#102 = CC_DESIGN_DATE_AND_TIME_ASSIGNMENT ( #248, #71, ( #158 ) ) ;
#103 =( LENGTH_UNIT ( ) NAMED_UNIT ( * ) SI_UNIT ( .MILLI., .METRE. ) );
#104 = DIRECTION ( 'NONE',  ( -1.000000000000000000, 0.000000000000000000, 0.000000000000000000 ) ) ;
#105 = AXIS2_PLACEMENT_3D ( 'NONE', #180, #197, #79 ) ;
#106 = ORGANIZATION ( 'NEURÈENÝ', 'NEURÈENÝ', '' ) ;
#107 = EDGE_CURVE ( 'NONE', #94, #235, #238, .T. ) ;
#108 = APPROVAL_ROLE ( '' ) ;
#109 =( NAMED_UNIT ( * ) SI_UNIT ( $, .STERADIAN. ) SOLID_ANGLE_UNIT ( ) );
#110 = CALENDAR_DATE ( 2023, 12, 2 ) ;
#111 = ADVANCED_FACE ( 'NONE', ( #67 ), #81, .F. ) ;
#112 = EDGE_LOOP ( 'NONE', ( #231, #211 ) ) ;
#113 = ADVANCED_FACE ( 'NONE', ( #199 ), #27, .T. ) ;
#114 = DIRECTION ( 'NONE',  ( 0.000000000000000000, 0.000000000000000000, 1.000000000000000000 ) ) ;
#115 = DIRECTION ( 'NONE',  ( -0.000000000000000000, -0.000000000000000000, -1.000000000000000000 ) ) ;
#116 = AXIS2_PLACEMENT_3D ( 'NONE', #204, #24, #104 ) ;
#117 = FACE_OUTER_BOUND ( 'NONE', #177, .T. ) ;
#118 = AXIS2_PLACEMENT_3D ( 'NONE', #172, #9, #151 ) ;
#119 = EDGE_LOOP ( 'NONE', ( #78, #61, #63, #2 ) ) ;
#120 = DIRECTION ( 'NONE',  ( -0.000000000000000000, -0.000000000000000000, -1.000000000000000000 ) ) ;
#121 = DIRECTION ( 'NONE',  ( 0.000000000000000000, 0.000000000000000000, 1.000000000000000000 ) ) ;
#122 = VECTOR ( 'NONE', #167, 1000.000000000000000 ) ;
#123 = PRODUCT_RELATED_PRODUCT_CATEGORY ( 'detail', '', ( #135 ) ) ;
#124 = CARTESIAN_POINT ( 'NONE',  ( 0.000000000000000000, 0.000000000000000000, 0.000000000000000000 ) ) ;
#125 = DIRECTION ( 'NONE',  ( 1.000000000000000000, 0.000000000000000000, 0.000000000000000000 ) ) ;
#126 = CIRCLE ( 'NONE', #15, 13.00000000000000178 ) ;
#127 = APPROVAL_PERSON_ORGANIZATION ( #246, #25, #108 ) ;
#128 = APPLICATION_PROTOCOL_DEFINITION ( 'international standard', 'config_control_design', 1994, #169 ) ;
#129 = ORIENTED_EDGE ( 'NONE', *, *, #179, .F. ) ;
#130 = DESIGN_CONTEXT ( 'detailed design', #212, 'design' ) ;
#131 = APPROVAL_ROLE ( '' ) ;
#132 = ORIENTED_EDGE ( 'NONE', *, *, #141, .F. ) ;
#133 = ADVANCED_FACE ( 'NONE', ( #86 ), #83, .T. ) ;
#134 = DATE_AND_TIME ( #227, #60 ) ;
#135 = PRODUCT ( 'f701', 'f701', '', ( #69 ) ) ;
#136 = PERSON_AND_ORGANIZATION_ROLE ( 'creator' ) ;
#137 = ORIENTED_EDGE ( 'NONE', *, *, #64, .F. ) ;
#138 = ORIENTED_EDGE ( 'NONE', *, *, #8, .T. ) ;
#139 = APPROVAL_PERSON_ORGANIZATION ( #250, #5, #206 ) ;
#140 = DIRECTION ( 'NONE',  ( 0.000000000000000000, 0.000000000000000000, 1.000000000000000000 ) ) ;
#141 = EDGE_CURVE ( 'NONE', #235, #194, #100, .T. ) ;
#142 = VERTEX_POINT ( 'NONE', #183 ) ;
#143 = DIRECTION ( 'NONE',  ( -0.000000000000000000, -0.000000000000000000, -1.000000000000000000 ) ) ;
#144 = AXIS2_PLACEMENT_3D ( 'NONE', #68, #205, #28 ) ;
#145 = DIRECTION ( 'NONE',  ( -0.000000000000000000, -0.000000000000000000, -1.000000000000000000 ) ) ;
#146 = DIRECTION ( 'NONE',  ( -1.000000000000000000, 0.000000000000000000, 0.000000000000000000 ) ) ;
#147 = CC_DESIGN_PERSON_AND_ORGANIZATION_ASSIGNMENT ( #226, #188, ( #135 ) ) ;
#148 = FACE_OUTER_BOUND ( 'NONE', #119, .T. ) ;
#149 = CARTESIAN_POINT ( 'NONE',  ( -13.00000000000000178, 0.000000000000000000, 0.000000000000000000 ) ) ;
#150 = DIRECTION ( 'NONE',  ( 1.000000000000000000, 0.000000000000000000, -0.000000000000000000 ) ) ;
#151 = DIRECTION ( 'NONE',  ( 1.000000000000000000, 0.000000000000000000, 0.000000000000000000 ) ) ;
#152 = PERSON_AND_ORGANIZATION ( #40, #106 ) ;
#153 = COORDINATED_UNIVERSAL_TIME_OFFSET ( 1, 0, .AHEAD. ) ;
#154 = EDGE_CURVE ( 'NONE', #254, #142, #65, .T. ) ;
#155 = EDGE_LOOP ( 'NONE', ( #137, #192 ) ) ;
#156 = CARTESIAN_POINT ( 'NONE',  ( 0.000000000000000000, 0.000000000000000000, 8.000000000000000000 ) ) ;
#157 = ORIENTED_EDGE ( 'NONE', *, *, #16, .F. ) ;
#158 = SECURITY_CLASSIFICATION ( '', '', #170 ) ;
#159 = FACE_BOUND ( 'NONE', #155, .T. ) ;
#160 = EDGE_LOOP ( 'NONE', ( #138, #187 ) ) ;
#161 = VECTOR ( 'NONE', #115, 1000.000000000000000 ) ;
#162 = DIRECTION ( 'NONE',  ( 1.000000000000000000, 0.000000000000000000, -0.000000000000000000 ) ) ;
#163 = CC_DESIGN_PERSON_AND_ORGANIZATION_ASSIGNMENT ( #87, #136, ( #252 ) ) ;
#164 = DIRECTION ( 'NONE',  ( -0.000000000000000000, -0.000000000000000000, -1.000000000000000000 ) ) ;
#165 = FACE_OUTER_BOUND ( 'NONE', #12, .T. ) ;
#166 = EDGE_CURVE ( 'NONE', #59, #254, #13, .T. ) ;
#167 = DIRECTION ( 'NONE',  ( -0.000000000000000000, -0.000000000000000000, -1.000000000000000000 ) ) ;
#168 = APPLICATION_PROTOCOL_DEFINITION ( 'international standard', 'config_control_design', 1994, #212 ) ;
#169 = APPLICATION_CONTEXT ( 'configuration controlled 3d designs of mechanical parts and assemblies' ) ;
#170 = SECURITY_CLASSIFICATION_LEVEL ( 'unclassified' ) ;
#171 = CC_DESIGN_APPROVAL ( #25, ( #29 ) ) ;
#172 = CARTESIAN_POINT ( 'NONE',  ( 0.000000000000000000, 0.000000000000000000, 0.000000000000000000 ) ) ;
#173 = APPROVAL ( #225, 'NEURÈENÝ' ) ;
#174 = PERSON_AND_ORGANIZATION ( #40, #106 ) ;
#175 = CC_DESIGN_SECURITY_CLASSIFICATION ( #158, ( #29 ) ) ;
#176 = CARTESIAN_POINT ( 'NONE',  ( 0.000000000000000000, 0.000000000000000000, 1200.000000000000000 ) ) ;
#177 = EDGE_LOOP ( 'NONE', ( #97, #50, #190, #19 ) ) ;
#178 = ORIENTED_EDGE ( 'NONE', *, *, #56, .T. ) ;
#179 = EDGE_CURVE ( 'NONE', #59, #210, #101, .T. ) ;
#180 = CARTESIAN_POINT ( 'NONE',  ( 0.000000000000000000, 0.000000000000000000, 8.000000000000000000 ) ) ;
#181 = ORIENTED_EDGE ( 'NONE', *, *, #107, .F. ) ;
#182 = CARTESIAN_POINT ( 'NONE',  ( 0.000000000000000000, 0.000000000000000000, 1200.000000000000000 ) ) ;
#183 = CARTESIAN_POINT ( 'NONE',  ( -10.00000000000000000, 0.000000000000000000, 8.000000000000000000 ) ) ;
#184 = CARTESIAN_POINT ( 'NONE',  ( 13.00000000000000178, 1.592040838891559293E-15, 8.000000000000000000 ) ) ;
#185 = CALENDAR_DATE ( 2023, 12, 2 ) ;
#186 = APPROVAL_DATE_TIME ( #73, #25 ) ;
#187 = ORIENTED_EDGE ( 'NONE', *, *, #45, .T. ) ;
#188 = PERSON_AND_ORGANIZATION_ROLE ( 'design_owner' ) ;
#189 = AXIS2_PLACEMENT_3D ( 'NONE', #232, #62, #42 ) ;
#190 = ORIENTED_EDGE ( 'NONE', *, *, #141, .T. ) ;
#191 = SHAPE_DEFINITION_REPRESENTATION ( #14, #57 ) ;
#192 = ORIENTED_EDGE ( 'NONE', *, *, #198, .F. ) ;
#193 = CC_DESIGN_PERSON_AND_ORGANIZATION_ASSIGNMENT ( #174, #208, ( #29 ) ) ;
#194 = VERTEX_POINT ( 'NONE', #149 ) ;
#195 = CYLINDRICAL_SURFACE ( 'NONE', #3, 13.00000000000000178 ) ;
#196 = CC_DESIGN_APPROVAL ( #5, ( #252 ) ) ;
#197 = DIRECTION ( 'NONE',  ( 0.000000000000000000, 0.000000000000000000, 1.000000000000000000 ) ) ;
#198 = EDGE_CURVE ( 'NONE', #210, #142, #221, .T. ) ;
#199 = FACE_OUTER_BOUND ( 'NONE', #91, .T. ) ;
#200 = AXIS2_PLACEMENT_3D ( 'NONE', #156, #39, #95 ) ;
#201 = CARTESIAN_POINT ( 'NONE',  ( -10.00000000000000000, 0.000000000000000000, 1200.000000000000000 ) ) ;
#202 = DIRECTION ( 'NONE',  ( -1.000000000000000000, 0.000000000000000000, 0.000000000000000000 ) ) ;
#203 = ADVANCED_FACE ( 'NONE', ( #165 ), #241, .T. ) ;
#204 = CARTESIAN_POINT ( 'NONE',  ( 0.000000000000000000, 0.000000000000000000, 8.000000000000000000 ) ) ;
#205 = DIRECTION ( 'NONE',  ( 0.000000000000000000, 0.000000000000000000, 1.000000000000000000 ) ) ;
#206 = APPROVAL_ROLE ( '' ) ;
#207 = APPROVAL_DATE_TIME ( #51, #5 ) ;
#208 = PERSON_AND_ORGANIZATION_ROLE ( 'creator' ) ;
#209 = DATE_AND_TIME ( #30, #21 ) ;
#210 = VERTEX_POINT ( 'NONE', #66 ) ;
#211 = ORIENTED_EDGE ( 'NONE', *, *, #166, .T. ) ;
#212 = APPLICATION_CONTEXT ( 'configuration controlled 3d designs of mechanical parts and assemblies' ) ;
#213 = CC_DESIGN_PERSON_AND_ORGANIZATION_ASSIGNMENT ( #11, #33, ( #158 ) ) ;
#214 = DIRECTION ( 'NONE',  ( 1.000000000000000000, 0.000000000000000000, 0.000000000000000000 ) ) ;
#215 = PLANE ( 'NONE',  #189 ) ;
#216 = CIRCLE ( 'NONE', #105, 13.00000000000000178 ) ;
#217 = ORIENTED_EDGE ( 'NONE', *, *, #35, .T. ) ;
#218 = CARTESIAN_POINT ( 'NONE',  ( 0.000000000000000000, 0.000000000000000000, 1200.000000000000000 ) ) ;
#219 = CARTESIAN_POINT ( 'NONE',  ( 13.00000000000000178, 1.592040838891559293E-15, 0.000000000000000000 ) ) ;
#220 = DIRECTION ( 'NONE',  ( 0.000000000000000000, 0.000000000000000000, 1.000000000000000000 ) ) ;
#221 = CIRCLE ( 'NONE', #144, 10.00000000000000000 ) ;
#222 = CARTESIAN_POINT ( 'NONE',  ( 0.000000000000000000, 0.000000000000000000, 1200.000000000000000 ) ) ;
#223 = CARTESIAN_POINT ( 'NONE',  ( 0.000000000000000000, 0.000000000000000000, 1200.000000000000000 ) ) ;
#224 = CIRCLE ( 'NONE', #7, 10.00000000000000000 ) ;
#225 = APPROVAL_STATUS ( 'not_yet_approved' ) ;
#226 = PERSON_AND_ORGANIZATION ( #40, #106 ) ;
#227 = CALENDAR_DATE ( 2023, 12, 2 ) ;
#228 = AXIS2_PLACEMENT_3D ( 'NONE', #223, #121, #162 ) ;
#229 = COORDINATED_UNIVERSAL_TIME_OFFSET ( 1, 0, .AHEAD. ) ;
#230 = MANIFOLD_SOLID_BREP ( 'Pøidat vysunutím3', #243 ) ;
#231 = ORIENTED_EDGE ( 'NONE', *, *, #16, .T. ) ;
#232 = CARTESIAN_POINT ( 'NONE',  ( 0.000000000000000000, 0.000000000000000000, 8.000000000000000000 ) ) ;
#233 = CC_DESIGN_PERSON_AND_ORGANIZATION_ASSIGNMENT ( #10, #89, ( #29 ) ) ;
#234 = LOCAL_TIME ( 11, 31, 12.00000000000000000, #229 ) ;
#235 = VERTEX_POINT ( 'NONE', #219 ) ;
#236 = FACE_OUTER_BOUND ( 'NONE', #160, .T. ) ;
#237 = EDGE_LOOP ( 'NONE', ( #23, #132 ) ) ;
#238 = LINE ( 'NONE', #44, #36 ) ;
#239 = AXIS2_PLACEMENT_3D ( 'NONE', #49, #4, #99 ) ;
#240 = DIRECTION ( 'NONE',  ( -1.000000000000000000, 0.000000000000000000, 0.000000000000000000 ) ) ;
#241 = CYLINDRICAL_SURFACE ( 'NONE', #244, 10.00000000000000000 ) ;
#242 = ADVANCED_FACE ( 'NONE', ( #148 ), #48, .T. ) ;
#243 = CLOSED_SHELL ( 'NONE', ( #242, #88, #113, #80, #111, #203, #133 ) ) ;
#244 = AXIS2_PLACEMENT_3D ( 'NONE', #218, #164, #240 ) ;
#245 = DIRECTION ( 'NONE',  ( 0.000000000000000000, 0.000000000000000000, 1.000000000000000000 ) ) ;
#246 = PERSON_AND_ORGANIZATION ( #40, #106 ) ;
#247 = CIRCLE ( 'NONE', #200, 10.00000000000000000 ) ;
#248 = DATE_AND_TIME ( #110, #85 ) ;
#249 = COORDINATED_UNIVERSAL_TIME_OFFSET ( 1, 0, .AHEAD. ) ;
#250 = PERSON_AND_ORGANIZATION ( #40, #106 ) ;
#251 = LOCAL_TIME ( 11, 31, 12.00000000000000000, #153 ) ;
#252 = PRODUCT_DEFINITION ( 'NEZNÁMÝ', '', #29, #130 ) ;
#253 = DIRECTION ( 'NONE',  ( 1.000000000000000000, 0.000000000000000000, 0.000000000000000000 ) ) ;
#254 = VERTEX_POINT ( 'NONE', #201 ) ;
#255 = CARTESIAN_POINT ( 'NONE',  ( -13.00000000000000178, 0.000000000000000000, 8.000000000000000000 ) ) ;
ENDSEC;
END-ISO-10303-21;
