ISO-10303-21;
HEADER;
FILE_DESCRIPTION (( 'STEP AP203' ),
    '1' );
FILE_NAME ('dc18.STEP',
    '2022-07-07T10:35:42',
    ( '' ),
    ( '' ),
    'SwSTEP 2.0',
    'SolidWorks 2019',
    '' );
FILE_SCHEMA (( 'CONFIG_CONTROL_DESIGN' ));
ENDSEC;

DATA;
#1 = DIRECTION ( 'NONE',  ( -0.000000000000000000, -0.000000000000000000, -1.000000000000000000 ) ) ;
#2 = CARTESIAN_POINT ( 'NONE',  ( -1.000000000000000000, 0.000000000000000000, 252.0000000000000000 ) ) ;
#3 = FACE_OUTER_BOUND ( 'NONE', #234, .T. ) ;
#4 = EDGE_CURVE ( 'NONE', #20, #303, #205, .T. ) ;
#5 = CC_DESIGN_PERSON_AND_ORGANIZATION_ASSIGNMENT ( #143, #14, ( #275 ) ) ;
#6 = DIRECTION ( 'NONE',  ( 0.000000000000000000, 0.000000000000000000, 1.000000000000000000 ) ) ;
#7 = VECTOR ( 'NONE', #247, 1000.000000000000000 ) ;
#8 = AXIS2_PLACEMENT_3D ( 'NONE', #268, #6, #132 ) ;
#9 = CARTESIAN_POINT ( 'NONE',  ( 0.000000000000000000, 0.000000000000000000, 2.200000000000007283 ) ) ;
#10 = EDGE_CURVE ( 'NONE', #186, #305, #59, .T. ) ;
#11 = LOCAL_TIME ( 12, 35, 42.00000000000000000, #219 ) ;
#12 =( NAMED_UNIT ( * ) SI_UNIT ( $, .STERADIAN. ) SOLID_ANGLE_UNIT ( ) );
#13 = CIRCLE ( 'NONE', #258, 2.000000000000000000 ) ;
#14 = PERSON_AND_ORGANIZATION_ROLE ( 'design_supplier' ) ;
#15 = ORIENTED_EDGE ( 'NONE', *, *, #187, .F. ) ;
#16 = PERSON_AND_ORGANIZATION ( #207, #45 ) ;
#17 = APPROVAL ( #65, 'NEURÈENÝ' ) ;
#18 = DIRECTION ( 'NONE',  ( 1.224646799147353207E-16, 1.000000000000000000, -0.000000000000000000 ) ) ;
#19 = PERSON_AND_ORGANIZATION ( #207, #45 ) ;
#20 = VERTEX_POINT ( 'NONE', #44 ) ;
#21 = CC_DESIGN_PERSON_AND_ORGANIZATION_ASSIGNMENT ( #192, #208, ( #264 ) ) ;
#22 = CIRCLE ( 'NONE', #151, 2.000000000000000000 ) ;
#23 = APPROVAL_ROLE ( '' ) ;
#24 = ORIENTED_EDGE ( 'NONE', *, *, #180, .F. ) ;
#25 = APPLICATION_PROTOCOL_DEFINITION ( 'international standard', 'config_control_design', 1994, #137 ) ;
#26 = FACE_OUTER_BOUND ( 'NONE', #89, .T. ) ;
#27 = APPROVAL_ROLE ( '' ) ;
#28 = ORIENTED_EDGE ( 'NONE', *, *, #10, .T. ) ;
#29 = DIRECTION ( 'NONE',  ( -1.000000000000000000, 0.000000000000000000, 0.000000000000000000 ) ) ;
#30 = APPROVAL_PERSON_ORGANIZATION ( #16, #17, #125 ) ;
#31 = DIRECTION ( 'NONE',  ( 0.000000000000000000, 0.000000000000000000, 1.000000000000000000 ) ) ;
#32 = EDGE_CURVE ( 'NONE', #206, #303, #76, .T. ) ;
#33 = DIRECTION ( 'NONE',  ( 1.000000000000000000, 0.000000000000000000, -0.000000000000000000 ) ) ;
#34 = DIRECTION ( 'NONE',  ( -0.000000000000000000, -0.000000000000000000, -1.000000000000000000 ) ) ;
#35 = EDGE_CURVE ( 'NONE', #139, #20, #197, .T. ) ;
#36 = PRODUCT ( 'dc18', 'dc18', '', ( #240 ) ) ;
#37 = ORIENTED_EDGE ( 'NONE', *, *, #32, .F. ) ;
#38 = APPROVAL ( #246, 'NEURÈENÝ' ) ;
#39 = ORIENTED_EDGE ( 'NONE', *, *, #218, .T. ) ;
#40 = LOCAL_TIME ( 12, 35, 42.00000000000000000, #194 ) ;
#41 = ORIENTED_EDGE ( 'NONE', *, *, #94, .F. ) ;
#42 = PERSON_AND_ORGANIZATION ( #207, #45 ) ;
#43 = ORIENTED_EDGE ( 'NONE', *, *, #301, .F. ) ;
#44 = CARTESIAN_POINT ( 'NONE',  ( -1.000000000000000000, 0.000000000000000000, 2.200000000000007283 ) ) ;
#45 = ORGANIZATION ( 'NEURÈENÝ', 'NEURÈENÝ', '' ) ;
#46 = DIRECTION ( 'NONE',  ( 0.000000000000000000, 0.000000000000000000, 1.000000000000000000 ) ) ;
#47 = COORDINATED_UNIVERSAL_TIME_OFFSET ( 1, 0, .AHEAD. ) ;
#48 = DIRECTION ( 'NONE',  ( 1.000000000000000000, 0.000000000000000000, 0.000000000000000000 ) ) ;
#49 = DATE_AND_TIME ( #176, #105 ) ;
#50 = CARTESIAN_POINT ( 'NONE',  ( -1.200000000000000178, 1.469576158976823799E-16, 2.000000000000003553 ) ) ;
#51 = ADVANCED_FACE ( 'NONE', ( #281 ), #173, .F. ) ;
#52 = AXIS2_PLACEMENT_3D ( 'NONE', #116, #18, #239 ) ;
#53 = CC_DESIGN_PERSON_AND_ORGANIZATION_ASSIGNMENT ( #149, #153, ( #36 ) ) ;
#54 = CARTESIAN_POINT ( 'NONE',  ( 0.000000000000000000, 0.000000000000000000, 2.000000000000000000 ) ) ;
#55 = AXIS2_PLACEMENT_3D ( 'NONE', #225, #31, #79 ) ;
#56 = CARTESIAN_POINT ( 'NONE',  ( 1.000000000000000000, 1.224646799147353207E-16, 252.0000000000000000 ) ) ;
#57 = DIRECTION ( 'NONE',  ( -0.000000000000000000, -0.000000000000000000, -1.000000000000000000 ) ) ;
#58 = CARTESIAN_POINT ( 'NONE',  ( 0.000000000000000000, 0.000000000000000000, 252.0000000000000000 ) ) ;
#59 = CIRCLE ( 'NONE', #166, 1.000000000000000000 ) ;
#60 = TOROIDAL_SURFACE ( 'NONE', #129, 1.200000000000000178, 0.2000000000000000111 ) ;
#61 = EDGE_LOOP ( 'NONE', ( #41, #255, #37, #193 ) ) ;
#62 = COORDINATED_UNIVERSAL_TIME_OFFSET ( 1, 0, .AHEAD. ) ;
#63 = CARTESIAN_POINT ( 'NONE',  ( -2.000000000000000000, 0.000000000000000000, 0.000000000000000000 ) ) ;
#64 =( GEOMETRIC_REPRESENTATION_CONTEXT ( 3 ) GLOBAL_UNCERTAINTY_ASSIGNED_CONTEXT ( ( #282 ) ) GLOBAL_UNIT_ASSIGNED_CONTEXT ( ( #86, #108, #12 ) ) REPRESENTATION_CONTEXT ( 'NONE', 'WORKASPACE' ) );
#65 = APPROVAL_STATUS ( 'not_yet_approved' ) ;
#66 = CARTESIAN_POINT ( 'NONE',  ( 2.000000000000000000, 2.449293598294706414E-16, 0.000000000000000000 ) ) ;
#67 = ORIENTED_EDGE ( 'NONE', *, *, #227, .F. ) ;
#68 = APPROVAL_STATUS ( 'not_yet_approved' ) ;
#69 = EDGE_CURVE ( 'NONE', #305, #20, #284, .T. ) ;
#70 = CARTESIAN_POINT ( 'NONE',  ( -1.000000000000000000, 0.000000000000000000, 252.0000000000000000 ) ) ;
#71 = COORDINATED_UNIVERSAL_TIME_OFFSET ( 1, 0, .AHEAD. ) ;
#72 = CARTESIAN_POINT ( 'NONE',  ( 0.000000000000000000, 0.000000000000000000, 2.000000000000000000 ) ) ;
#73 = FACE_OUTER_BOUND ( 'NONE', #263, .T. ) ;
#74 = EDGE_CURVE ( 'NONE', #303, #206, #256, .T. ) ;
#75 = CARTESIAN_POINT ( 'NONE',  ( 1.200000000000000178, 0.000000000000000000, 2.200000000000007283 ) ) ;
#76 = CIRCLE ( 'NONE', #236, 1.200000000000000178 ) ;
#77 = APPROVAL_PERSON_ORGANIZATION ( #19, #102, #23 ) ;
#78 = FACE_OUTER_BOUND ( 'NONE', #238, .T. ) ;
#79 = DIRECTION ( 'NONE',  ( 1.000000000000000000, 0.000000000000000000, -0.000000000000000000 ) ) ;
#80 = DIRECTION ( 'NONE',  ( 0.000000000000000000, 0.000000000000000000, -1.000000000000000000 ) ) ;
#81 = CLOSED_SHELL ( 'NONE', ( #276, #233, #120, #199, #209, #51, #253, #190, #261 ) ) ;
#82 = ORIENTED_EDGE ( 'NONE', *, *, #133, .T. ) ;
#83 = AXIS2_PLACEMENT_3D ( 'NONE', #304, #95, #285 ) ;
#84 = ORIENTED_EDGE ( 'NONE', *, *, #10, .F. ) ;
#85 = MANIFOLD_SOLID_BREP ( 'Zaoblit1', #81 ) ;
#86 =( LENGTH_UNIT ( ) NAMED_UNIT ( * ) SI_UNIT ( .MILLI., .METRE. ) );
#87 = ORIENTED_EDGE ( 'NONE', *, *, #35, .F. ) ;
#88 = CC_DESIGN_APPROVAL ( #38, ( #264 ) ) ;
#89 = EDGE_LOOP ( 'NONE', ( #115, #204, #165, #24 ) ) ;
#90 = CALENDAR_DATE ( 2022, 7, 7 ) ;
#91 = DIRECTION ( 'NONE',  ( 1.000000000000000000, 0.000000000000000000, 0.000000000000000000 ) ) ;
#92 = CARTESIAN_POINT ( 'NONE',  ( 0.000000000000000000, 0.000000000000000000, 2.000000000000000000 ) ) ;
#93 = LINE ( 'NONE', #156, #7 ) ;
#94 = EDGE_CURVE ( 'NONE', #20, #139, #99, .T. ) ;
#95 = DIRECTION ( 'NONE',  ( 0.000000000000000000, 0.000000000000000000, 1.000000000000000000 ) ) ;
#96 = EDGE_LOOP ( 'NONE', ( #84, #298, #109, #241 ) ) ;
#97 = ADVANCED_BREP_SHAPE_REPRESENTATION ( 'dc18', ( #85, #83 ), #64 ) ;
#98 = DIRECTION ( 'NONE',  ( -0.000000000000000000, -0.000000000000000000, -1.000000000000000000 ) ) ;
#99 = CIRCLE ( 'NONE', #162, 1.000000000000000000 ) ;
#100 = VECTOR ( 'NONE', #1, 1000.000000000000000 ) ;
#101 = CYLINDRICAL_SURFACE ( 'NONE', #175, 2.000000000000000000 ) ;
#102 = APPROVAL ( #68, 'NEURÈENÝ' ) ;
#103 = CYLINDRICAL_SURFACE ( 'NONE', #222, 1.000000000000000000 ) ;
#104 = CARTESIAN_POINT ( 'NONE',  ( 0.000000000000000000, 0.000000000000000000, 2.200000000000007283 ) ) ;
#105 = LOCAL_TIME ( 12, 35, 42.00000000000000000, #47 ) ;
#106 = CARTESIAN_POINT ( 'NONE',  ( 2.000000000000000000, 2.449293598294706414E-16, 2.000000000000000000 ) ) ;
#107 = DIRECTION ( 'NONE',  ( 0.000000000000000000, 0.000000000000000000, 1.000000000000000000 ) ) ;
#108 =( NAMED_UNIT ( * ) PLANE_ANGLE_UNIT ( ) SI_UNIT ( $, .RADIAN. ) );
#109 = ORIENTED_EDGE ( 'NONE', *, *, #35, .T. ) ;
#110 = LOCAL_TIME ( 12, 35, 42.00000000000000000, #62 ) ;
#111 = ORIENTED_EDGE ( 'NONE', *, *, #133, .F. ) ;
#112 = EDGE_LOOP ( 'NONE', ( #252, #124 ) ) ;
#113 = APPLICATION_CONTEXT ( 'configuration controlled 3d designs of mechanical parts and assemblies' ) ;
#114 = PERSON_AND_ORGANIZATION_ROLE ( 'creator' ) ;
#115 = ORIENTED_EDGE ( 'NONE', *, *, #235, .F. ) ;
#116 = CARTESIAN_POINT ( 'NONE',  ( -1.200000000000000178, 1.469576158976823799E-16, 2.200000000000007283 ) ) ;
#117 = DESIGN_CONTEXT ( 'detailed design', #137, 'design' ) ;
#118 = DATE_AND_TIME ( #147, #11 ) ;
#119 = CARTESIAN_POINT ( 'NONE',  ( 0.000000000000000000, 0.000000000000000000, 2.200000000000007283 ) ) ;
#120 = ADVANCED_FACE ( 'NONE', ( #26 ), #220, .T. ) ;
#121 = AXIS2_PLACEMENT_3D ( 'NONE', #72, #210, #299 ) ;
#122 = AXIS2_PLACEMENT_3D ( 'NONE', #158, #57, #290 ) ;
#123 = DATE_AND_TIME ( #90, #291 ) ;
#124 = ORIENTED_EDGE ( 'NONE', *, *, #74, .T. ) ;
#125 = APPROVAL_ROLE ( '' ) ;
#126 = DIRECTION ( 'NONE',  ( 1.000000000000000000, 0.000000000000000000, -0.000000000000000000 ) ) ;
#127 = APPROVAL_DATE_TIME ( #49, #38 ) ;
#128 = CARTESIAN_POINT ( 'NONE',  ( 0.000000000000000000, 0.000000000000000000, 0.000000000000000000 ) ) ;
#129 = AXIS2_PLACEMENT_3D ( 'NONE', #9, #107, #293 ) ;
#130 = FACE_BOUND ( 'NONE', #112, .T. ) ;
#131 = FACE_OUTER_BOUND ( 'NONE', #217, .T. ) ;
#132 = DIRECTION ( 'NONE',  ( 1.000000000000000000, 0.000000000000000000, 0.000000000000000000 ) ) ;
#133 = EDGE_CURVE ( 'NONE', #142, #148, #22, .T. ) ;
#134 = VECTOR ( 'NONE', #266, 1000.000000000000000 ) ;
#135 = AXIS2_PLACEMENT_3D ( 'NONE', #75, #269, #80 ) ;
#136 = DIRECTION ( 'NONE',  ( -0.000000000000000000, -0.000000000000000000, -1.000000000000000000 ) ) ;
#137 = APPLICATION_CONTEXT ( 'configuration controlled 3d designs of mechanical parts and assemblies' ) ;
#138 = CC_DESIGN_DATE_AND_TIME_ASSIGNMENT ( #237, #244, ( #164 ) ) ;
#139 = VERTEX_POINT ( 'NONE', #146 ) ;
#140 = APPLICATION_PROTOCOL_DEFINITION ( 'international standard', 'config_control_design', 1994, #113 ) ;
#141 = AXIS2_PLACEMENT_3D ( 'NONE', #300, #259, #126 ) ;
#142 = VERTEX_POINT ( 'NONE', #63 ) ;
#143 = PERSON_AND_ORGANIZATION ( #207, #45 ) ;
#144 = AXIS2_PLACEMENT_3D ( 'NONE', #58, #226, #33 ) ;
#145 = DATE_AND_TIME ( #257, #110 ) ;
#146 = CARTESIAN_POINT ( 'NONE',  ( 1.000000000000000000, 1.224646799147353207E-16, 2.200000000000007283 ) ) ;
#147 = CALENDAR_DATE ( 2022, 7, 7 ) ;
#148 = VERTEX_POINT ( 'NONE', #66 ) ;
#149 = PERSON_AND_ORGANIZATION ( #207, #45 ) ;
#150 = DIRECTION ( 'NONE',  ( 1.000000000000000000, 0.000000000000000000, 0.000000000000000000 ) ) ;
#151 = AXIS2_PLACEMENT_3D ( 'NONE', #191, #174, #262 ) ;
#152 = CIRCLE ( 'NONE', #8, 1.000000000000000000 ) ;
#153 = PERSON_AND_ORGANIZATION_ROLE ( 'design_owner' ) ;
#154 = CARTESIAN_POINT ( 'NONE',  ( 0.000000000000000000, 0.000000000000000000, 2.200000000000007283 ) ) ;
#155 = PERSON_AND_ORGANIZATION ( #207, #45 ) ;
#156 = CARTESIAN_POINT ( 'NONE',  ( -2.000000000000000000, 0.000000000000000000, 2.000000000000000000 ) ) ;
#157 = LINE ( 'NONE', #106, #297 ) ;
#158 = CARTESIAN_POINT ( 'NONE',  ( 0.000000000000000000, 0.000000000000000000, 252.0000000000000000 ) ) ;
#159 = CARTESIAN_POINT ( 'NONE',  ( 1.200000000000000178, 0.000000000000000000, 2.000000000000003553 ) ) ;
#160 = PRODUCT_RELATED_PRODUCT_CATEGORY ( 'detail', '', ( #36 ) ) ;
#161 = FACE_OUTER_BOUND ( 'NONE', #61, .T. ) ;
#162 = AXIS2_PLACEMENT_3D ( 'NONE', #119, #213, #48 ) ;
#163 = CARTESIAN_POINT ( 'NONE',  ( -2.000000000000000000, 0.000000000000000000, 2.000000000000000000 ) ) ;
#164 = PRODUCT_DEFINITION ( 'NEZNÁMÝ', '', #275, #117 ) ;
#165 = ORIENTED_EDGE ( 'NONE', *, *, #301, .T. ) ;
#166 = AXIS2_PLACEMENT_3D ( 'NONE', #280, #46, #170 ) ;
#167 = CC_DESIGN_APPROVAL ( #102, ( #164 ) ) ;
#168 = ORIENTED_EDGE ( 'NONE', *, *, #200, .T. ) ;
#169 = SHAPE_DEFINITION_REPRESENTATION ( #294, #97 ) ;
#170 = DIRECTION ( 'NONE',  ( 1.000000000000000000, 0.000000000000000000, 0.000000000000000000 ) ) ;
#171 = AXIS2_PLACEMENT_3D ( 'NONE', #128, #221, #288 ) ;
#172 = VERTEX_POINT ( 'NONE', #196 ) ;
#173 = PLANE ( 'NONE',  #141 ) ;
#174 = DIRECTION ( 'NONE',  ( 0.000000000000000000, 0.000000000000000000, 1.000000000000000000 ) ) ;
#175 = AXIS2_PLACEMENT_3D ( 'NONE', #202, #292, #29 ) ;
#176 = CALENDAR_DATE ( 2022, 7, 7 ) ;
#177 = ORIENTED_EDGE ( 'NONE', *, *, #74, .F. ) ;
#178 = FACE_OUTER_BOUND ( 'NONE', #96, .T. ) ;
#179 = CARTESIAN_POINT ( 'NONE',  ( 1.000000000000000000, 1.224646799147353207E-16, 252.0000000000000000 ) ) ;
#180 = EDGE_CURVE ( 'NONE', #286, #142, #93, .T. ) ;
#181 = CIRCLE ( 'NONE', #184, 2.000000000000000000 ) ;
#182 = DIRECTION ( 'NONE',  ( 0.000000000000000000, 0.000000000000000000, 1.000000000000000000 ) ) ;
#183 = PLANE ( 'NONE',  #144 ) ;
#184 = AXIS2_PLACEMENT_3D ( 'NONE', #251, #249, #271 ) ;
#185 = EDGE_LOOP ( 'NONE', ( #111, #43 ) ) ;
#186 = VERTEX_POINT ( 'NONE', #179 ) ;
#187 = EDGE_CURVE ( 'NONE', #172, #148, #157, .T. ) ;
#188 = ORIENTED_EDGE ( 'NONE', *, *, #94, .T. ) ;
#189 = ORIENTED_EDGE ( 'NONE', *, *, #4, .F. ) ;
#190 = ADVANCED_FACE ( 'NONE', ( #73 ), #183, .T. ) ;
#191 = CARTESIAN_POINT ( 'NONE',  ( 0.000000000000000000, 0.000000000000000000, 0.000000000000000000 ) ) ;
#192 = PERSON_AND_ORGANIZATION ( #207, #45 ) ;
#193 = ORIENTED_EDGE ( 'NONE', *, *, #200, .F. ) ;
#194 = COORDINATED_UNIVERSAL_TIME_OFFSET ( 1, 0, .AHEAD. ) ;
#195 = DIRECTION ( 'NONE',  ( -0.000000000000000000, -0.000000000000000000, -1.000000000000000000 ) ) ;
#196 = CARTESIAN_POINT ( 'NONE',  ( 2.000000000000000000, 2.449293598294706414E-16, 2.000000000000000000 ) ) ;
#197 = CIRCLE ( 'NONE', #232, 1.000000000000000000 ) ;
#198 = PLANE ( 'NONE',  #55 ) ;
#199 = ADVANCED_FACE ( 'NONE', ( #203 ), #101, .T. ) ;
#200 = EDGE_CURVE ( 'NONE', #139, #206, #254, .T. ) ;
#201 = CYLINDRICAL_SURFACE ( 'NONE', #122, 1.000000000000000000 ) ;
#202 = CARTESIAN_POINT ( 'NONE',  ( 0.000000000000000000, 0.000000000000000000, 2.000000000000000000 ) ) ;
#203 = FACE_OUTER_BOUND ( 'NONE', #243, .T. ) ;
#204 = ORIENTED_EDGE ( 'NONE', *, *, #187, .T. ) ;
#205 = CIRCLE ( 'NONE', #52, 0.2000000000000000944 ) ;
#206 = VERTEX_POINT ( 'NONE', #159 ) ;
#207 = PERSON ( 'NEURÈENÝ', 'NEURÈENÝ', 'NEURÈENÝ', ('NEURÈENÝ'), ('NEURÈENÝ'), ('NEURÈENÝ') ) ;
#208 = PERSON_AND_ORGANIZATION_ROLE ( 'classification_officer' ) ;
#209 = ADVANCED_FACE ( 'NONE', ( #130, #78 ), #198, .T. ) ;
#210 = DIRECTION ( 'NONE',  ( -0.000000000000000000, -0.000000000000000000, -1.000000000000000000 ) ) ;
#211 = CARTESIAN_POINT ( 'NONE',  ( 0.000000000000000000, 0.000000000000000000, 2.000000000000000000 ) ) ;
#212 = PERSON_AND_ORGANIZATION ( #207, #45 ) ;
#213 = DIRECTION ( 'NONE',  ( 0.000000000000000000, 0.000000000000000000, 1.000000000000000000 ) ) ;
#214 = AXIS2_PLACEMENT_3D ( 'NONE', #104, #182, #270 ) ;
#215 = TOROIDAL_SURFACE ( 'NONE', #214, 1.200000000000000178, 0.2000000000000000111 ) ;
#216 = APPROVAL_DATE_TIME ( #123, #102 ) ;
#217 = EDGE_LOOP ( 'NONE', ( #67, #307, #260, #188 ) ) ;
#218 = EDGE_CURVE ( 'NONE', #286, #172, #13, .T. ) ;
#219 = COORDINATED_UNIVERSAL_TIME_OFFSET ( 1, 0, .AHEAD. ) ;
#220 = CYLINDRICAL_SURFACE ( 'NONE', #242, 2.000000000000000000 ) ;
#221 = DIRECTION ( 'NONE',  ( 0.000000000000000000, 0.000000000000000000, 1.000000000000000000 ) ) ;
#222 = AXIS2_PLACEMENT_3D ( 'NONE', #250, #136, #272 ) ;
#223 = LINE ( 'NONE', #56, #100 ) ;
#224 = CC_DESIGN_PERSON_AND_ORGANIZATION_ASSIGNMENT ( #212, #278, ( #275 ) ) ;
#225 = CARTESIAN_POINT ( 'NONE',  ( 0.000000000000000000, 0.000000000000000000, 2.000000000000000000 ) ) ;
#226 = DIRECTION ( 'NONE',  ( 0.000000000000000000, 0.000000000000000000, 1.000000000000000000 ) ) ;
#227 = EDGE_CURVE ( 'NONE', #186, #139, #223, .T. ) ;
#228 = APPROVAL_PERSON_ORGANIZATION ( #155, #38, #27 ) ;
#229 = DIRECTION ( 'NONE',  ( 1.000000000000000000, 0.000000000000000000, 0.000000000000000000 ) ) ;
#230 = CC_DESIGN_DATE_AND_TIME_ASSIGNMENT ( #145, #265, ( #264 ) ) ;
#231 = ORIENTED_EDGE ( 'NONE', *, *, #267, .T. ) ;
#232 = AXIS2_PLACEMENT_3D ( 'NONE', #154, #245, #150 ) ;
#233 = ADVANCED_FACE ( 'NONE', ( #178 ), #103, .T. ) ;
#234 = EDGE_LOOP ( 'NONE', ( #189, #87, #168, #177 ) ) ;
#235 = EDGE_CURVE ( 'NONE', #172, #286, #181, .T. ) ;
#236 = AXIS2_PLACEMENT_3D ( 'NONE', #211, #195, #91 ) ;
#237 = DATE_AND_TIME ( #283, #40 ) ;
#238 = EDGE_LOOP ( 'NONE', ( #39, #295 ) ) ;
#239 = DIRECTION ( 'NONE',  ( -1.000000000000000000, 1.224646799147351975E-16, 0.000000000000000000 ) ) ;
#240 = MECHANICAL_CONTEXT ( 'NONE', #113, 'mechanical' ) ;
#241 = ORIENTED_EDGE ( 'NONE', *, *, #69, .F. ) ;
#242 = AXIS2_PLACEMENT_3D ( 'NONE', #92, #98, #279 ) ;
#243 = EDGE_LOOP ( 'NONE', ( #15, #277, #274, #82 ) ) ;
#244 = DATE_TIME_ROLE ( 'creation_date' ) ;
#245 = DIRECTION ( 'NONE',  ( 0.000000000000000000, 0.000000000000000000, 1.000000000000000000 ) ) ;
#246 = APPROVAL_STATUS ( 'not_yet_approved' ) ;
#247 = DIRECTION ( 'NONE',  ( -0.000000000000000000, -0.000000000000000000, -1.000000000000000000 ) ) ;
#248 = CC_DESIGN_SECURITY_CLASSIFICATION ( #264, ( #275 ) ) ;
#249 = DIRECTION ( 'NONE',  ( 0.000000000000000000, 0.000000000000000000, 1.000000000000000000 ) ) ;
#250 = CARTESIAN_POINT ( 'NONE',  ( 0.000000000000000000, 0.000000000000000000, 252.0000000000000000 ) ) ;
#251 = CARTESIAN_POINT ( 'NONE',  ( 0.000000000000000000, 0.000000000000000000, 2.000000000000000000 ) ) ;
#252 = ORIENTED_EDGE ( 'NONE', *, *, #32, .T. ) ;
#253 = ADVANCED_FACE ( 'NONE', ( #131 ), #201, .T. ) ;
#254 = CIRCLE ( 'NONE', #135, 0.2000000000000000944 ) ;
#255 = ORIENTED_EDGE ( 'NONE', *, *, #4, .T. ) ;
#256 = CIRCLE ( 'NONE', #121, 1.200000000000000178 ) ;
#257 = CALENDAR_DATE ( 2022, 7, 7 ) ;
#258 = AXIS2_PLACEMENT_3D ( 'NONE', #54, #289, #229 ) ;
#259 = DIRECTION ( 'NONE',  ( 0.000000000000000000, 0.000000000000000000, 1.000000000000000000 ) ) ;
#260 = ORIENTED_EDGE ( 'NONE', *, *, #69, .T. ) ;
#261 = ADVANCED_FACE ( 'NONE', ( #3 ), #215, .F. ) ;
#262 = DIRECTION ( 'NONE',  ( 1.000000000000000000, 0.000000000000000000, 0.000000000000000000 ) ) ;
#263 = EDGE_LOOP ( 'NONE', ( #231, #28 ) ) ;
#264 = SECURITY_CLASSIFICATION ( '', '', #302 ) ;
#265 = DATE_TIME_ROLE ( 'classification_date' ) ;
#266 = DIRECTION ( 'NONE',  ( -0.000000000000000000, -0.000000000000000000, -1.000000000000000000 ) ) ;
#267 = EDGE_CURVE ( 'NONE', #305, #186, #152, .T. ) ;
#268 = CARTESIAN_POINT ( 'NONE',  ( 0.000000000000000000, 0.000000000000000000, 252.0000000000000000 ) ) ;
#269 = DIRECTION ( 'NONE',  ( 0.000000000000000000, -1.000000000000000000, 0.000000000000000000 ) ) ;
#270 = DIRECTION ( 'NONE',  ( 1.000000000000000000, 0.000000000000000000, 0.000000000000000000 ) ) ;
#271 = DIRECTION ( 'NONE',  ( 1.000000000000000000, 0.000000000000000000, 0.000000000000000000 ) ) ;
#272 = DIRECTION ( 'NONE',  ( -1.000000000000000000, 0.000000000000000000, 0.000000000000000000 ) ) ;
#273 = CIRCLE ( 'NONE', #171, 2.000000000000000000 ) ;
#274 = ORIENTED_EDGE ( 'NONE', *, *, #180, .T. ) ;
#275 = PRODUCT_DEFINITION_FORMATION_WITH_SPECIFIED_SOURCE ( 'LIBOVOLNÝ', '', #36, .NOT_KNOWN. ) ;
#276 = ADVANCED_FACE ( 'NONE', ( #161 ), #60, .F. ) ;
#277 = ORIENTED_EDGE ( 'NONE', *, *, #218, .F. ) ;
#278 = PERSON_AND_ORGANIZATION_ROLE ( 'creator' ) ;
#279 = DIRECTION ( 'NONE',  ( -1.000000000000000000, 0.000000000000000000, 0.000000000000000000 ) ) ;
#280 = CARTESIAN_POINT ( 'NONE',  ( 0.000000000000000000, 0.000000000000000000, 252.0000000000000000 ) ) ;
#281 = FACE_OUTER_BOUND ( 'NONE', #185, .T. ) ;
#282 = UNCERTAINTY_MEASURE_WITH_UNIT (LENGTH_MEASURE( 1.000000000000000082E-05 ), #86, 'distance_accuracy_value', 'NONE');
#283 = CALENDAR_DATE ( 2022, 7, 7 ) ;
#284 = LINE ( 'NONE', #70, #134 ) ;
#285 = DIRECTION ( 'NONE',  ( 1.000000000000000000, 0.000000000000000000, 0.000000000000000000 ) ) ;
#286 = VERTEX_POINT ( 'NONE', #163 ) ;
#287 = CC_DESIGN_APPROVAL ( #17, ( #275 ) ) ;
#288 = DIRECTION ( 'NONE',  ( 1.000000000000000000, 0.000000000000000000, 0.000000000000000000 ) ) ;
#289 = DIRECTION ( 'NONE',  ( 0.000000000000000000, 0.000000000000000000, 1.000000000000000000 ) ) ;
#290 = DIRECTION ( 'NONE',  ( -1.000000000000000000, 0.000000000000000000, 0.000000000000000000 ) ) ;
#291 = LOCAL_TIME ( 12, 35, 42.00000000000000000, #71 ) ;
#292 = DIRECTION ( 'NONE',  ( -0.000000000000000000, -0.000000000000000000, -1.000000000000000000 ) ) ;
#293 = DIRECTION ( 'NONE',  ( 1.000000000000000000, 0.000000000000000000, 0.000000000000000000 ) ) ;
#294 = PRODUCT_DEFINITION_SHAPE ( 'NONE', 'NONE',  #164 ) ;
#295 = ORIENTED_EDGE ( 'NONE', *, *, #235, .T. ) ;
#296 = CC_DESIGN_PERSON_AND_ORGANIZATION_ASSIGNMENT ( #42, #114, ( #164 ) ) ;
#297 = VECTOR ( 'NONE', #34, 1000.000000000000000 ) ;
#298 = ORIENTED_EDGE ( 'NONE', *, *, #227, .T. ) ;
#299 = DIRECTION ( 'NONE',  ( 1.000000000000000000, 0.000000000000000000, 0.000000000000000000 ) ) ;
#300 = CARTESIAN_POINT ( 'NONE',  ( 0.000000000000000000, 0.000000000000000000, 0.000000000000000000 ) ) ;
#301 = EDGE_CURVE ( 'NONE', #148, #142, #273, .T. ) ;
#302 = SECURITY_CLASSIFICATION_LEVEL ( 'unclassified' ) ;
#303 = VERTEX_POINT ( 'NONE', #50 ) ;
#304 = CARTESIAN_POINT ( 'NONE',  ( 0.000000000000000000, 0.000000000000000000, 0.000000000000000000 ) ) ;
#305 = VERTEX_POINT ( 'NONE', #2 ) ;
#306 = APPROVAL_DATE_TIME ( #118, #17 ) ;
#307 = ORIENTED_EDGE ( 'NONE', *, *, #267, .F. ) ;
ENDSEC;
END-ISO-10303-21;
