ISO-10303-21;
HEADER;
FILE_DESCRIPTION (( 'STEP AP203' ),
    '1' );
FILE_NAME ('03b4.STEP',
    '2022-07-07T10:00:23',
    ( '' ),
    ( '' ),
    'SwSTEP 2.0',
    'SolidWorks 2019',
    '' );
FILE_SCHEMA (( 'CONFIG_CONTROL_DESIGN' ));
ENDSEC;

DATA;
#1 = APPROVAL_DATE_TIME ( #215, #127 ) ;
#2 = ORIENTED_EDGE ( 'NONE', *, *, #168, .T. ) ;
#3 = AXIS2_PLACEMENT_3D ( 'NONE', #255, #253, #161 ) ;
#4 = PERSON_AND_ORGANIZATION_ROLE ( 'design_owner' ) ;
#5 = DIRECTION ( 'NONE',  ( 1.000000000000000000, 0.000000000000000000, 0.000000000000000000 ) ) ;
#6 = AXIS2_PLACEMENT_3D ( 'NONE', #205, #134, #212 ) ;
#7 = FACE_OUTER_BOUND ( 'NONE', #33, .T. ) ;
#8 = ORIENTED_EDGE ( 'NONE', *, *, #29, .T. ) ;
#9 = VERTEX_POINT ( 'NONE', #297 ) ;
#10 = AXIS2_PLACEMENT_3D ( 'NONE', #126, #122, #5 ) ;
#11 = APPLICATION_CONTEXT ( 'configuration controlled 3d designs of mechanical parts and assemblies' ) ;
#12 = DIRECTION ( 'NONE',  ( 1.000000000000000000, 0.000000000000000000, 0.000000000000000000 ) ) ;
#13 = DIRECTION ( 'NONE',  ( 1.000000000000000000, 0.000000000000000000, 0.000000000000000000 ) ) ;
#14 = DIRECTION ( 'NONE',  ( 0.000000000000000000, 0.000000000000000000, -1.000000000000000000 ) ) ;
#15 = CARTESIAN_POINT ( 'NONE',  ( 4.099999999999999645, 5.021051876504147385E-16, 635.0000000000000000 ) ) ;
#16 = VERTEX_POINT ( 'NONE', #128 ) ;
#17 =( NAMED_UNIT ( * ) PLANE_ANGLE_UNIT ( ) SI_UNIT ( $, .RADIAN. ) );
#18 = FACE_OUTER_BOUND ( 'NONE', #229, .T. ) ;
#19 = ADVANCED_FACE ( 'NONE', ( #129 ), #104, .T. ) ;
#20 = COORDINATED_UNIVERSAL_TIME_OFFSET ( 1, 0, .AHEAD. ) ;
#21 =( GEOMETRIC_REPRESENTATION_CONTEXT ( 3 ) GLOBAL_UNCERTAINTY_ASSIGNED_CONTEXT ( ( #149 ) ) GLOBAL_UNIT_ASSIGNED_CONTEXT ( ( #59, #17, #191 ) ) REPRESENTATION_CONTEXT ( 'NONE', 'WORKASPACE' ) );
#22 = DATE_AND_TIME ( #47, #147 ) ;
#23 = COORDINATED_UNIVERSAL_TIME_OFFSET ( 1, 0, .AHEAD. ) ;
#24 = EDGE_LOOP ( 'NONE', ( #202, #223, #121, #65 ) ) ;
#25 = TOROIDAL_SURFACE ( 'NONE', #3, 4.299999999999998934, 0.2000000000000000111 ) ;
#26 = ORIENTED_EDGE ( 'NONE', *, *, #183, .T. ) ;
#27 = DIRECTION ( 'NONE',  ( 1.000000000000000000, 0.000000000000000000, 0.000000000000000000 ) ) ;
#28 = CIRCLE ( 'NONE', #162, 4.099999999999999645 ) ;
#29 = EDGE_CURVE ( 'NONE', #290, #248, #123, .T. ) ;
#30 = DIRECTION ( 'NONE',  ( 0.000000000000000000, 0.000000000000000000, 1.000000000000000000 ) ) ;
#31 = APPROVAL ( #236, 'NEURÈENÝ' ) ;
#32 = DIRECTION ( 'NONE',  ( 0.000000000000000000, 0.000000000000000000, 1.000000000000000000 ) ) ;
#33 = EDGE_LOOP ( 'NONE', ( #262, #164, #195, #177 ) ) ;
#34 = DIRECTION ( 'NONE',  ( -1.000000000000000000, 0.000000000000000000, 0.000000000000000000 ) ) ;
#35 = CIRCLE ( 'NONE', #91, 0.1999999999999996503 ) ;
#36 = CARTESIAN_POINT ( 'NONE',  ( 0.000000000000000000, 0.000000000000000000, 635.0000000000000000 ) ) ;
#37 = CYLINDRICAL_SURFACE ( 'NONE', #66, 7.000000000000000000 ) ;
#38 = CC_DESIGN_PERSON_AND_ORGANIZATION_ASSIGNMENT ( #193, #258, ( #197 ) ) ;
#39 = EDGE_LOOP ( 'NONE', ( #8, #189 ) ) ;
#40 = LOCAL_TIME ( 12, 0, 23.00000000000000000, #242 ) ;
#41 = LINE ( 'NONE', #15, #270 ) ;
#42 = PRODUCT_DEFINITION_SHAPE ( 'NONE', 'NONE',  #144 ) ;
#43 = ORIENTED_EDGE ( 'NONE', *, *, #54, .T. ) ;
#44 = CARTESIAN_POINT ( 'NONE',  ( 0.000000000000000000, 0.000000000000000000, 5.000000000000000000 ) ) ;
#45 = VERTEX_POINT ( 'NONE', #268 ) ;
#46 = APPLICATION_PROTOCOL_DEFINITION ( 'international standard', 'config_control_design', 1994, #284 ) ;
#47 = CALENDAR_DATE ( 2022, 7, 7 ) ;
#48 = APPROVAL_PERSON_ORGANIZATION ( #260, #139, #172 ) ;
#49 = EDGE_CURVE ( 'NONE', #16, #264, #254, .T. ) ;
#50 = SHAPE_DEFINITION_REPRESENTATION ( #42, #221 ) ;
#51 = CALENDAR_DATE ( 2022, 7, 7 ) ;
#52 = VECTOR ( 'NONE', #278, 1000.000000000000000 ) ;
#53 = CARTESIAN_POINT ( 'NONE',  ( -4.099999999999999645, 0.000000000000000000, 635.0000000000000000 ) ) ;
#54 = EDGE_CURVE ( 'NONE', #182, #245, #119, .T. ) ;
#55 = ORIENTED_EDGE ( 'NONE', *, *, #183, .F. ) ;
#56 = DIRECTION ( 'NONE',  ( 1.000000000000000000, 0.000000000000000000, -0.000000000000000000 ) ) ;
#57 = DIRECTION ( 'NONE',  ( -1.000000000000000000, 0.000000000000000000, 0.000000000000000000 ) ) ;
#58 = FACE_OUTER_BOUND ( 'NONE', #90, .T. ) ;
#59 =( LENGTH_UNIT ( ) NAMED_UNIT ( * ) SI_UNIT ( .MILLI., .METRE. ) );
#60 = AXIS2_PLACEMENT_3D ( 'NONE', #106, #219, #34 ) ;
#61 = CIRCLE ( 'NONE', #6, 4.099999999999999645 ) ;
#62 = DIRECTION ( 'NONE',  ( -0.000000000000000000, -0.000000000000000000, -1.000000000000000000 ) ) ;
#63 = CYLINDRICAL_SURFACE ( 'NONE', #241, 7.000000000000000000 ) ;
#64 = AXIS2_PLACEMENT_3D ( 'NONE', #151, #32, #27 ) ;
#65 = ORIENTED_EDGE ( 'NONE', *, *, #49, .F. ) ;
#66 = AXIS2_PLACEMENT_3D ( 'NONE', #209, #62, #276 ) ;
#67 = CARTESIAN_POINT ( 'NONE',  ( 4.299999999999998934, 0.000000000000000000, 5.199999999999982414 ) ) ;
#68 = PERSON_AND_ORGANIZATION ( #277, #225 ) ;
#69 = APPROVAL_ROLE ( '' ) ;
#70 = APPROVAL_STATUS ( 'not_yet_approved' ) ;
#71 = TOROIDAL_SURFACE ( 'NONE', #275, 4.299999999999998934, 0.2000000000000000111 ) ;
#72 = COORDINATED_UNIVERSAL_TIME_OFFSET ( 1, 0, .AHEAD. ) ;
#73 = PRODUCT_RELATED_PRODUCT_CATEGORY ( 'detail', '', ( #88 ) ) ;
#74 = APPROVAL_ROLE ( '' ) ;
#75 = ORIENTED_EDGE ( 'NONE', *, *, #200, .T. ) ;
#76 = FACE_OUTER_BOUND ( 'NONE', #39, .T. ) ;
#77 = DESIGN_CONTEXT ( 'detailed design', #11, 'design' ) ;
#78 = AXIS2_PLACEMENT_3D ( 'NONE', #272, #203, #57 ) ;
#79 = DIRECTION ( 'NONE',  ( 1.000000000000000000, 0.000000000000000000, 0.000000000000000000 ) ) ;
#80 = AXIS2_PLACEMENT_3D ( 'NONE', #163, #89, #13 ) ;
#81 = CARTESIAN_POINT ( 'NONE',  ( 0.000000000000000000, 0.000000000000000000, 5.000000000000000000 ) ) ;
#82 = CARTESIAN_POINT ( 'NONE',  ( 7.000000000000000000, 8.572527594031473190E-16, 0.000000000000000000 ) ) ;
#83 = CARTESIAN_POINT ( 'NONE',  ( 0.000000000000000000, 0.000000000000000000, 5.199999999999982414 ) ) ;
#84 = ADVANCED_FACE ( 'NONE', ( #176, #76 ), #101, .T. ) ;
#85 = CARTESIAN_POINT ( 'NONE',  ( 4.299999999999998934, 0.000000000000000000, 4.999999999999991118 ) ) ;
#86 = FACE_OUTER_BOUND ( 'NONE', #115, .T. ) ;
#87 = ORIENTED_EDGE ( 'NONE', *, *, #29, .F. ) ;
#88 = PRODUCT ( '03b4', '03b4', '', ( #141 ) ) ;
#89 = DIRECTION ( 'NONE',  ( 0.000000000000000000, 0.000000000000000000, 1.000000000000000000 ) ) ;
#90 = EDGE_LOOP ( 'NONE', ( #148, #256 ) ) ;
#91 = AXIS2_PLACEMENT_3D ( 'NONE', #226, #227, #160 ) ;
#92 = APPROVAL_DATE_TIME ( #239, #139 ) ;
#93 = PERSON_AND_ORGANIZATION_ROLE ( 'creator' ) ;
#94 = DIRECTION ( 'NONE',  ( 0.000000000000000000, 0.000000000000000000, 1.000000000000000000 ) ) ;
#95 = CC_DESIGN_PERSON_AND_ORGANIZATION_ASSIGNMENT ( #282, #169, ( #197 ) ) ;
#96 = DIRECTION ( 'NONE',  ( 1.000000000000000000, 0.000000000000000000, 0.000000000000000000 ) ) ;
#97 = VECTOR ( 'NONE', #131, 1000.000000000000000 ) ;
#98 = EDGE_LOOP ( 'NONE', ( #135, #75, #196, #120 ) ) ;
#99 = CARTESIAN_POINT ( 'NONE',  ( 4.099999999999999645, 5.021051876504147385E-16, 5.199999999999982414 ) ) ;
#100 = CC_DESIGN_APPROVAL ( #127, ( #111 ) ) ;
#101 = PLANE ( 'NONE',  #295 ) ;
#102 = DIRECTION ( 'NONE',  ( 1.000000000000000000, 0.000000000000000000, 0.000000000000000000 ) ) ;
#103 = CC_DESIGN_PERSON_AND_ORGANIZATION_ASSIGNMENT ( #143, #4, ( #88 ) ) ;
#104 = CYLINDRICAL_SURFACE ( 'NONE', #78, 4.099999999999999645 ) ;
#105 = CIRCLE ( 'NONE', #80, 7.000000000000000000 ) ;
#106 = CARTESIAN_POINT ( 'NONE',  ( 0.000000000000000000, 0.000000000000000000, 635.0000000000000000 ) ) ;
#107 = LINE ( 'NONE', #114, #97 ) ;
#108 = ADVANCED_FACE ( 'NONE', ( #58 ), #158, .T. ) ;
#109 = DIRECTION ( 'NONE',  ( 0.000000000000000000, 0.000000000000000000, 1.000000000000000000 ) ) ;
#110 = APPROVAL_PERSON_ORGANIZATION ( #257, #127, #74 ) ;
#111 = SECURITY_CLASSIFICATION ( '', '', #287 ) ;
#112 = DIRECTION ( 'NONE',  ( 0.000000000000000000, 0.000000000000000000, 1.000000000000000000 ) ) ;
#113 = EDGE_LOOP ( 'NONE', ( #279, #87, #26, #43 ) ) ;
#114 = CARTESIAN_POINT ( 'NONE',  ( -7.000000000000000000, 0.000000000000000000, 5.000000000000000000 ) ) ;
#115 = EDGE_LOOP ( 'NONE', ( #198, #304, #231, #140 ) ) ;
#116 = LOCAL_TIME ( 12, 0, 23.00000000000000000, #117 ) ;
#117 = COORDINATED_UNIVERSAL_TIME_OFFSET ( 1, 0, .AHEAD. ) ;
#118 = PERSON_AND_ORGANIZATION_ROLE ( 'classification_officer' ) ;
#119 = CIRCLE ( 'NONE', #170, 7.000000000000000000 ) ;
#120 = ORIENTED_EDGE ( 'NONE', *, *, #150, .F. ) ;
#121 = ORIENTED_EDGE ( 'NONE', *, *, #251, .T. ) ;
#122 = DIRECTION ( 'NONE',  ( 0.000000000000000000, 0.000000000000000000, 1.000000000000000000 ) ) ;
#123 = CIRCLE ( 'NONE', #216, 7.000000000000000000 ) ;
#124 = ORIENTED_EDGE ( 'NONE', *, *, #54, .F. ) ;
#125 = EDGE_CURVE ( 'NONE', #173, #138, #28, .T. ) ;
#126 = CARTESIAN_POINT ( 'NONE',  ( 0.000000000000000000, 0.000000000000000000, 0.000000000000000000 ) ) ;
#127 = APPROVAL ( #70, 'NEURÈENÝ' ) ;
#128 = CARTESIAN_POINT ( 'NONE',  ( -4.299999999999998934, 5.265981236333617484E-16, 4.999999999999991118 ) ) ;
#129 = FACE_OUTER_BOUND ( 'NONE', #98, .T. ) ;
#130 = ADVANCED_FACE ( 'NONE', ( #7 ), #291, .T. ) ;
#131 = DIRECTION ( 'NONE',  ( -0.000000000000000000, -0.000000000000000000, -1.000000000000000000 ) ) ;
#132 = DIRECTION ( 'NONE',  ( 1.000000000000000000, 0.000000000000000000, 0.000000000000000000 ) ) ;
#133 = MANIFOLD_SOLID_BREP ( 'Zaoblit1', #179 ) ;
#134 = DIRECTION ( 'NONE',  ( 0.000000000000000000, 0.000000000000000000, 1.000000000000000000 ) ) ;
#135 = ORIENTED_EDGE ( 'NONE', *, *, #244, .F. ) ;
#136 = CIRCLE ( 'NONE', #175, 0.1999999999999996503 ) ;
#137 = DIRECTION ( 'NONE',  ( -0.000000000000000000, -0.000000000000000000, -1.000000000000000000 ) ) ;
#138 = VERTEX_POINT ( 'NONE', #180 ) ;
#139 = APPROVAL ( #146, 'NEURÈENÝ' ) ;
#140 = ORIENTED_EDGE ( 'NONE', *, *, #251, .F. ) ;
#141 = MECHANICAL_CONTEXT ( 'NONE', #284, 'mechanical' ) ;
#142 = AXIS2_PLACEMENT_3D ( 'NONE', #36, #109, #132 ) ;
#143 = PERSON_AND_ORGANIZATION ( #277, #225 ) ;
#144 = PRODUCT_DEFINITION ( 'NEZNÁMÝ', '', #197, #77 ) ;
#145 = CALENDAR_DATE ( 2022, 7, 7 ) ;
#146 = APPROVAL_STATUS ( 'not_yet_approved' ) ;
#147 = LOCAL_TIME ( 12, 0, 23.00000000000000000, #72 ) ;
#148 = ORIENTED_EDGE ( 'NONE', *, *, #218, .T. ) ;
#149 = UNCERTAINTY_MEASURE_WITH_UNIT (LENGTH_MEASURE( 1.000000000000000082E-05 ), #59, 'distance_accuracy_value', 'NONE');
#150 = EDGE_CURVE ( 'NONE', #9, #138, #267, .T. ) ;
#151 = CARTESIAN_POINT ( 'NONE',  ( 0.000000000000000000, 0.000000000000000000, 5.199999999999982414 ) ) ;
#152 = CARTESIAN_POINT ( 'NONE',  ( 0.000000000000000000, 0.000000000000000000, 5.000000000000000000 ) ) ;
#153 = AXIS2_PLACEMENT_3D ( 'NONE', #178, #154, #271 ) ;
#154 = DIRECTION ( 'NONE',  ( 0.000000000000000000, 0.000000000000000000, 1.000000000000000000 ) ) ;
#155 = CC_DESIGN_APPROVAL ( #139, ( #197 ) ) ;
#156 = CC_DESIGN_DATE_AND_TIME_ASSIGNMENT ( #283, #305, ( #144 ) ) ;
#157 = CARTESIAN_POINT ( 'NONE',  ( -7.000000000000000000, 0.000000000000000000, 0.000000000000000000 ) ) ;
#158 = PLANE ( 'NONE',  #153 ) ;
#159 = DIRECTION ( 'NONE',  ( -0.000000000000000000, -0.000000000000000000, -1.000000000000000000 ) ) ;
#160 = DIRECTION ( 'NONE',  ( -1.000000000000000000, 1.224646799147353454E-16, 0.000000000000000000 ) ) ;
#161 = DIRECTION ( 'NONE',  ( 1.000000000000000000, 0.000000000000000000, 0.000000000000000000 ) ) ;
#162 = AXIS2_PLACEMENT_3D ( 'NONE', #247, #249, #12 ) ;
#163 = CARTESIAN_POINT ( 'NONE',  ( 0.000000000000000000, 0.000000000000000000, 5.000000000000000000 ) ) ;
#164 = ORIENTED_EDGE ( 'NONE', *, *, #218, .F. ) ;
#165 = LINE ( 'NONE', #185, #52 ) ;
#166 = PERSON_AND_ORGANIZATION ( #277, #225 ) ;
#167 = EDGE_CURVE ( 'NONE', #138, #173, #206, .T. ) ;
#168 = EDGE_CURVE ( 'NONE', #245, #182, #240, .T. ) ;
#169 = PERSON_AND_ORGANIZATION_ROLE ( 'creator' ) ;
#170 = AXIS2_PLACEMENT_3D ( 'NONE', #246, #294, #79 ) ;
#171 = CALENDAR_DATE ( 2022, 7, 7 ) ;
#172 = APPROVAL_ROLE ( '' ) ;
#173 = VERTEX_POINT ( 'NONE', #99 ) ;
#174 = ORIENTED_EDGE ( 'NONE', *, *, #265, .T. ) ;
#175 = AXIS2_PLACEMENT_3D ( 'NONE', #67, #274, #14 ) ;
#176 = FACE_BOUND ( 'NONE', #296, .T. ) ;
#177 = ORIENTED_EDGE ( 'NONE', *, *, #167, .T. ) ;
#178 = CARTESIAN_POINT ( 'NONE',  ( 0.000000000000000000, 0.000000000000000000, 635.0000000000000000 ) ) ;
#179 = CLOSED_SHELL ( 'NONE', ( #301, #19, #289, #307, #84, #192, #130, #108, #285 ) ) ;
#180 = CARTESIAN_POINT ( 'NONE',  ( -4.099999999999999645, 0.000000000000000000, 5.199999999999982414 ) ) ;
#181 = AXIS2_PLACEMENT_3D ( 'NONE', #214, #94, #96 ) ;
#182 = VERTEX_POINT ( 'NONE', #157 ) ;
#183 = EDGE_CURVE ( 'NONE', #290, #182, #107, .T. ) ;
#184 = DIRECTION ( 'NONE',  ( -0.000000000000000000, -0.000000000000000000, -1.000000000000000000 ) ) ;
#185 = CARTESIAN_POINT ( 'NONE',  ( 7.000000000000000000, 8.572527594031473190E-16, 5.000000000000000000 ) ) ;
#186 = APPROVAL_PERSON_ORGANIZATION ( #68, #31, #69 ) ;
#187 = EDGE_CURVE ( 'NONE', #138, #16, #35, .T. ) ;
#188 = DIRECTION ( 'NONE',  ( 1.000000000000000000, 0.000000000000000000, 0.000000000000000000 ) ) ;
#189 = ORIENTED_EDGE ( 'NONE', *, *, #199, .T. ) ;
#190 = CIRCLE ( 'NONE', #306, 4.299999999999998934 ) ;
#191 =( NAMED_UNIT ( * ) SI_UNIT ( $, .STERADIAN. ) SOLID_ANGLE_UNIT ( ) );
#192 = ADVANCED_FACE ( 'NONE', ( #18 ), #207, .F. ) ;
#193 = PERSON_AND_ORGANIZATION ( #277, #225 ) ;
#194 = CIRCLE ( 'NONE', #142, 4.099999999999999645 ) ;
#195 = ORIENTED_EDGE ( 'NONE', *, *, #150, .T. ) ;
#196 = ORIENTED_EDGE ( 'NONE', *, *, #125, .T. ) ;
#197 = PRODUCT_DEFINITION_FORMATION_WITH_SPECIFIED_SOURCE ( 'LIBOVOLNÝ', '', #88, .NOT_KNOWN. ) ;
#198 = ORIENTED_EDGE ( 'NONE', *, *, #167, .F. ) ;
#199 = EDGE_CURVE ( 'NONE', #248, #290, #105, .T. ) ;
#200 = EDGE_CURVE ( 'NONE', #45, #173, #41, .T. ) ;
#201 = DIRECTION ( 'NONE',  ( -0.000000000000000000, -0.000000000000000000, -1.000000000000000000 ) ) ;
#202 = ORIENTED_EDGE ( 'NONE', *, *, #187, .F. ) ;
#203 = DIRECTION ( 'NONE',  ( -0.000000000000000000, -0.000000000000000000, -1.000000000000000000 ) ) ;
#204 = CARTESIAN_POINT ( 'NONE',  ( 0.000000000000000000, 0.000000000000000000, 5.000000000000000000 ) ) ;
#205 = CARTESIAN_POINT ( 'NONE',  ( 0.000000000000000000, 0.000000000000000000, 635.0000000000000000 ) ) ;
#206 = CIRCLE ( 'NONE', #64, 4.099999999999999645 ) ;
#207 = PLANE ( 'NONE',  #213 ) ;
#208 = CC_DESIGN_PERSON_AND_ORGANIZATION_ASSIGNMENT ( #235, #93, ( #144 ) ) ;
#209 = CARTESIAN_POINT ( 'NONE',  ( 0.000000000000000000, 0.000000000000000000, 5.000000000000000000 ) ) ;
#210 = CARTESIAN_POINT ( 'NONE',  ( 0.000000000000000000, 0.000000000000000000, 0.000000000000000000 ) ) ;
#211 = ORIENTED_EDGE ( 'NONE', *, *, #199, .F. ) ;
#212 = DIRECTION ( 'NONE',  ( 1.000000000000000000, 0.000000000000000000, 0.000000000000000000 ) ) ;
#213 = AXIS2_PLACEMENT_3D ( 'NONE', #210, #300, #303 ) ;
#214 = CARTESIAN_POINT ( 'NONE',  ( 0.000000000000000000, 0.000000000000000000, 0.000000000000000000 ) ) ;
#215 = DATE_AND_TIME ( #261, #40 ) ;
#216 = AXIS2_PLACEMENT_3D ( 'NONE', #204, #292, #220 ) ;
#217 = LOCAL_TIME ( 12, 0, 23.00000000000000000, #23 ) ;
#218 = EDGE_CURVE ( 'NONE', #9, #45, #61, .T. ) ;
#219 = DIRECTION ( 'NONE',  ( -0.000000000000000000, -0.000000000000000000, -1.000000000000000000 ) ) ;
#220 = DIRECTION ( 'NONE',  ( 1.000000000000000000, 0.000000000000000000, 0.000000000000000000 ) ) ;
#221 = ADVANCED_BREP_SHAPE_REPRESENTATION ( '03b4', ( #133, #181 ), #21 ) ;
#222 = DIRECTION ( 'NONE',  ( -0.000000000000000000, -0.000000000000000000, -1.000000000000000000 ) ) ;
#223 = ORIENTED_EDGE ( 'NONE', *, *, #125, .F. ) ;
#224 = ORIENTED_EDGE ( 'NONE', *, *, #232, .T. ) ;
#225 = ORGANIZATION ( 'NEURÈENÝ', 'NEURÈENÝ', '' ) ;
#226 = CARTESIAN_POINT ( 'NONE',  ( -4.299999999999998934, 5.265981236333617484E-16, 5.199999999999982414 ) ) ;
#227 = DIRECTION ( 'NONE',  ( 1.224646799147353207E-16, 1.000000000000000000, -0.000000000000000000 ) ) ;
#228 = CARTESIAN_POINT ( 'NONE',  ( 0.000000000000000000, 0.000000000000000000, 5.000000000000000000 ) ) ;
#229 = EDGE_LOOP ( 'NONE', ( #124, #243 ) ) ;
#230 = FACE_OUTER_BOUND ( 'NONE', #113, .T. ) ;
#231 = ORIENTED_EDGE ( 'NONE', *, *, #232, .F. ) ;
#232 = EDGE_CURVE ( 'NONE', #264, #16, #190, .T. ) ;
#233 = DIRECTION ( 'NONE',  ( -1.000000000000000000, 0.000000000000000000, 0.000000000000000000 ) ) ;
#234 = EDGE_LOOP ( 'NONE', ( #211, #174, #2, #55 ) ) ;
#235 = PERSON_AND_ORGANIZATION ( #277, #225 ) ;
#236 = APPROVAL_STATUS ( 'not_yet_approved' ) ;
#237 = APPLICATION_PROTOCOL_DEFINITION ( 'international standard', 'config_control_design', 1994, #11 ) ;
#238 = CC_DESIGN_DATE_AND_TIME_ASSIGNMENT ( #22, #286, ( #111 ) ) ;
#239 = DATE_AND_TIME ( #145, #116 ) ;
#240 = CIRCLE ( 'NONE', #10, 7.000000000000000000 ) ;
#241 = AXIS2_PLACEMENT_3D ( 'NONE', #44, #184, #233 ) ;
#242 = COORDINATED_UNIVERSAL_TIME_OFFSET ( 1, 0, .AHEAD. ) ;
#243 = ORIENTED_EDGE ( 'NONE', *, *, #168, .F. ) ;
#244 = EDGE_CURVE ( 'NONE', #45, #9, #194, .T. ) ;
#245 = VERTEX_POINT ( 'NONE', #82 ) ;
#246 = CARTESIAN_POINT ( 'NONE',  ( 0.000000000000000000, 0.000000000000000000, 0.000000000000000000 ) ) ;
#247 = CARTESIAN_POINT ( 'NONE',  ( 0.000000000000000000, 0.000000000000000000, 5.199999999999982414 ) ) ;
#248 = VERTEX_POINT ( 'NONE', #280 ) ;
#249 = DIRECTION ( 'NONE',  ( 0.000000000000000000, 0.000000000000000000, 1.000000000000000000 ) ) ;
#250 = VECTOR ( 'NONE', #201, 1000.000000000000000 ) ;
#251 = EDGE_CURVE ( 'NONE', #173, #264, #136, .T. ) ;
#252 = FACE_OUTER_BOUND ( 'NONE', #234, .T. ) ;
#253 = DIRECTION ( 'NONE',  ( 0.000000000000000000, 0.000000000000000000, 1.000000000000000000 ) ) ;
#254 = CIRCLE ( 'NONE', #299, 4.299999999999998934 ) ;
#255 = CARTESIAN_POINT ( 'NONE',  ( 0.000000000000000000, 0.000000000000000000, 5.199999999999982414 ) ) ;
#256 = ORIENTED_EDGE ( 'NONE', *, *, #244, .T. ) ;
#257 = PERSON_AND_ORGANIZATION ( #277, #225 ) ;
#258 = PERSON_AND_ORGANIZATION_ROLE ( 'design_supplier' ) ;
#259 = CC_DESIGN_APPROVAL ( #31, ( #144 ) ) ;
#260 = PERSON_AND_ORGANIZATION ( #277, #225 ) ;
#261 = CALENDAR_DATE ( 2022, 7, 7 ) ;
#262 = ORIENTED_EDGE ( 'NONE', *, *, #200, .F. ) ;
#263 = DATE_AND_TIME ( #171, #217 ) ;
#264 = VERTEX_POINT ( 'NONE', #85 ) ;
#265 = EDGE_CURVE ( 'NONE', #248, #245, #165, .T. ) ;
#266 = CC_DESIGN_SECURITY_CLASSIFICATION ( #111, ( #197 ) ) ;
#267 = LINE ( 'NONE', #53, #250 ) ;
#268 = CARTESIAN_POINT ( 'NONE',  ( 4.099999999999999645, 5.021051876504147385E-16, 635.0000000000000000 ) ) ;
#269 = ORIENTED_EDGE ( 'NONE', *, *, #49, .T. ) ;
#270 = VECTOR ( 'NONE', #159, 1000.000000000000000 ) ;
#271 = DIRECTION ( 'NONE',  ( 1.000000000000000000, 0.000000000000000000, -0.000000000000000000 ) ) ;
#272 = CARTESIAN_POINT ( 'NONE',  ( 0.000000000000000000, 0.000000000000000000, 635.0000000000000000 ) ) ;
#273 = DIRECTION ( 'NONE',  ( 1.000000000000000000, 0.000000000000000000, 0.000000000000000000 ) ) ;
#274 = DIRECTION ( 'NONE',  ( 0.000000000000000000, -1.000000000000000000, 0.000000000000000000 ) ) ;
#275 = AXIS2_PLACEMENT_3D ( 'NONE', #83, #112, #273 ) ;
#276 = DIRECTION ( 'NONE',  ( -1.000000000000000000, 0.000000000000000000, 0.000000000000000000 ) ) ;
#277 = PERSON ( 'NEURÈENÝ', 'NEURÈENÝ', 'NEURÈENÝ', ('NEURÈENÝ'), ('NEURÈENÝ'), ('NEURÈENÝ') ) ;
#278 = DIRECTION ( 'NONE',  ( -0.000000000000000000, -0.000000000000000000, -1.000000000000000000 ) ) ;
#279 = ORIENTED_EDGE ( 'NONE', *, *, #265, .F. ) ;
#280 = CARTESIAN_POINT ( 'NONE',  ( 7.000000000000000000, 8.572527594031473190E-16, 5.000000000000000000 ) ) ;
#281 = LOCAL_TIME ( 12, 0, 23.00000000000000000, #20 ) ;
#282 = PERSON_AND_ORGANIZATION ( #277, #225 ) ;
#283 = DATE_AND_TIME ( #51, #281 ) ;
#284 = APPLICATION_CONTEXT ( 'configuration controlled 3d designs of mechanical parts and assemblies' ) ;
#285 = ADVANCED_FACE ( 'NONE', ( #298 ), #71, .F. ) ;
#286 = DATE_TIME_ROLE ( 'classification_date' ) ;
#287 = SECURITY_CLASSIFICATION_LEVEL ( 'unclassified' ) ;
#288 = APPROVAL_DATE_TIME ( #263, #31 ) ;
#289 = ADVANCED_FACE ( 'NONE', ( #252 ), #37, .T. ) ;
#290 = VERTEX_POINT ( 'NONE', #302 ) ;
#291 = CYLINDRICAL_SURFACE ( 'NONE', #60, 4.099999999999999645 ) ;
#292 = DIRECTION ( 'NONE',  ( 0.000000000000000000, 0.000000000000000000, 1.000000000000000000 ) ) ;
#293 = CC_DESIGN_PERSON_AND_ORGANIZATION_ASSIGNMENT ( #166, #118, ( #111 ) ) ;
#294 = DIRECTION ( 'NONE',  ( 0.000000000000000000, 0.000000000000000000, 1.000000000000000000 ) ) ;
#295 = AXIS2_PLACEMENT_3D ( 'NONE', #81, #30, #56 ) ;
#296 = EDGE_LOOP ( 'NONE', ( #224, #269 ) ) ;
#297 = CARTESIAN_POINT ( 'NONE',  ( -4.099999999999999645, 0.000000000000000000, 635.0000000000000000 ) ) ;
#298 = FACE_OUTER_BOUND ( 'NONE', #24, .T. ) ;
#299 = AXIS2_PLACEMENT_3D ( 'NONE', #152, #222, #102 ) ;
#300 = DIRECTION ( 'NONE',  ( 0.000000000000000000, 0.000000000000000000, 1.000000000000000000 ) ) ;
#301 = ADVANCED_FACE ( 'NONE', ( #86 ), #25, .F. ) ;
#302 = CARTESIAN_POINT ( 'NONE',  ( -7.000000000000000000, 0.000000000000000000, 5.000000000000000000 ) ) ;
#303 = DIRECTION ( 'NONE',  ( 1.000000000000000000, 0.000000000000000000, -0.000000000000000000 ) ) ;
#304 = ORIENTED_EDGE ( 'NONE', *, *, #187, .T. ) ;
#305 = DATE_TIME_ROLE ( 'creation_date' ) ;
#306 = AXIS2_PLACEMENT_3D ( 'NONE', #228, #137, #188 ) ;
#307 = ADVANCED_FACE ( 'NONE', ( #230 ), #63, .T. ) ;
ENDSEC;
END-ISO-10303-21;
