ISO-10303-21;
HEADER;
FILE_DESCRIPTION (( 'STEP AP203' ),
    '1' );
FILE_NAME ('345a.STEP',
    '2022-07-07T09:45:13',
    ( '' ),
    ( '' ),
    'SwSTEP 2.0',
    'SolidWorks 2019',
    '' );
FILE_SCHEMA (( 'CONFIG_CONTROL_DESIGN' ));
ENDSEC;

DATA;
#1 = PERSON_AND_ORGANIZATION ( #13, #306 ) ;
#2 = EDGE_CURVE ( 'NONE', #257, #194, #40, .T. ) ;
#3 = APPROVAL_ROLE ( '' ) ;
#4 = DIRECTION ( 'NONE',  ( 0.000000000000000000, 0.000000000000000000, 1.000000000000000000 ) ) ;
#5 = DIRECTION ( 'NONE',  ( -0.000000000000000000, -0.000000000000000000, -1.000000000000000000 ) ) ;
#6 = DIRECTION ( 'NONE',  ( -0.000000000000000000, -0.000000000000000000, -1.000000000000000000 ) ) ;
#7 = EDGE_CURVE ( 'NONE', #257, #232, #204, .T. ) ;
#8 = DIRECTION ( 'NONE',  ( 0.000000000000000000, 0.000000000000000000, 1.000000000000000000 ) ) ;
#9 = AXIS2_PLACEMENT_3D ( 'NONE', #137, #213, #69 ) ;
#10 = VERTEX_POINT ( 'NONE', #16 ) ;
#11 = AXIS2_PLACEMENT_3D ( 'NONE', #304, #50, #290 ) ;
#12 = EDGE_LOOP ( 'NONE', ( #88, #185 ) ) ;
#13 = PERSON ( 'NEURÈENÝ', 'NEURÈENÝ', 'NEURÈENÝ', ('NEURÈENÝ'), ('NEURÈENÝ'), ('NEURÈENÝ') ) ;
#14 = FACE_OUTER_BOUND ( 'NONE', #12, .T. ) ;
#15 = AXIS2_PLACEMENT_3D ( 'NONE', #124, #60, #279 ) ;
#16 = CARTESIAN_POINT ( 'NONE',  ( 6.099999999999999645, 7.470345474798854293E-16, 7.199999999999998401 ) ) ;
#17 = CIRCLE ( 'NONE', #61, 9.000000000000000000 ) ;
#18 = DESIGN_CONTEXT ( 'detailed design', #280, 'design' ) ;
#19 = CARTESIAN_POINT ( 'NONE',  ( -6.099999999999999645, 0.000000000000000000, 132.0000000000000000 ) ) ;
#20 = DIRECTION ( 'NONE',  ( -1.000000000000000000, 0.000000000000000000, 0.000000000000000000 ) ) ;
#21 = AXIS2_PLACEMENT_3D ( 'NONE', #24, #121, #92 ) ;
#22 = VERTEX_POINT ( 'NONE', #283 ) ;
#23 =( NAMED_UNIT ( * ) PLANE_ANGLE_UNIT ( ) SI_UNIT ( $, .RADIAN. ) );
#24 = CARTESIAN_POINT ( 'NONE',  ( 0.000000000000000000, 0.000000000000000000, 0.000000000000000000 ) ) ;
#25 = ORIENTED_EDGE ( 'NONE', *, *, #156, .T. ) ;
#26 = CYLINDRICAL_SURFACE ( 'NONE', #149, 6.099999999999999645 ) ;
#27 = DATE_TIME_ROLE ( 'classification_date' ) ;
#28 = ADVANCED_FACE ( 'NONE', ( #14 ), #258, .T. ) ;
#29 = CC_DESIGN_APPROVAL ( #71, ( #182 ) ) ;
#30 = DIRECTION ( 'NONE',  ( 1.000000000000000000, 0.000000000000000000, 0.000000000000000000 ) ) ;
#31 = DATE_AND_TIME ( #220, #251 ) ;
#32 = FACE_OUTER_BOUND ( 'NONE', #100, .T. ) ;
#33 = CLOSED_SHELL ( 'NONE', ( #104, #253, #209, #219, #85, #272, #266, #28, #162 ) ) ;
#34 = CARTESIAN_POINT ( 'NONE',  ( 6.099999999999999645, 7.470345474798854293E-16, 132.0000000000000000 ) ) ;
#35 = PRODUCT_DEFINITION_SHAPE ( 'NONE', 'NONE',  #80 ) ;
#36 = FACE_OUTER_BOUND ( 'NONE', #74, .T. ) ;
#37 = PLANE ( 'NONE',  #260 ) ;
#38 = CARTESIAN_POINT ( 'NONE',  ( 0.000000000000000000, 0.000000000000000000, 7.199999999999998401 ) ) ;
#39 = EDGE_LOOP ( 'NONE', ( #160, #302, #25, #163 ) ) ;
#40 = LINE ( 'NONE', #111, #96 ) ;
#41 = CARTESIAN_POINT ( 'NONE',  ( 0.000000000000000000, 0.000000000000000000, 132.0000000000000000 ) ) ;
#42 = AXIS2_PLACEMENT_3D ( 'NONE', #41, #236, #109 ) ;
#43 = CARTESIAN_POINT ( 'NONE',  ( 0.000000000000000000, 0.000000000000000000, 132.0000000000000000 ) ) ;
#44 = EDGE_CURVE ( 'NONE', #264, #141, #72, .T. ) ;
#45 = ORIENTED_EDGE ( 'NONE', *, *, #142, .T. ) ;
#46 = CARTESIAN_POINT ( 'NONE',  ( 9.000000000000000000, 1.102182119232617714E-15, 0.000000000000000000 ) ) ;
#47 = CIRCLE ( 'NONE', #224, 0.1999999999999996503 ) ;
#48 = DIRECTION ( 'NONE',  ( 1.000000000000000000, 0.000000000000000000, 0.000000000000000000 ) ) ;
#49 = EDGE_LOOP ( 'NONE', ( #269, #66, #301, #299 ) ) ;
#50 = DIRECTION ( 'NONE',  ( 0.000000000000000000, 0.000000000000000000, 1.000000000000000000 ) ) ;
#51 = CC_DESIGN_PERSON_AND_ORGANIZATION_ASSIGNMENT ( #268, #173, ( #182 ) ) ;
#52 = ORIENTED_EDGE ( 'NONE', *, *, #125, .F. ) ;
#53 = COORDINATED_UNIVERSAL_TIME_OFFSET ( 1, 0, .AHEAD. ) ;
#54 = LOCAL_TIME ( 11, 45, 13.00000000000000000, #267 ) ;
#55 = PERSON_AND_ORGANIZATION ( #13, #306 ) ;
#56 = DIRECTION ( 'NONE',  ( 0.000000000000000000, 0.000000000000000000, 1.000000000000000000 ) ) ;
#57 = SHAPE_DEFINITION_REPRESENTATION ( #35, #139 ) ;
#58 = DIRECTION ( 'NONE',  ( 0.000000000000000000, 0.000000000000000000, 1.000000000000000000 ) ) ;
#59 = AXIS2_PLACEMENT_3D ( 'NONE', #83, #8, #178 ) ;
#60 = DIRECTION ( 'NONE',  ( 0.000000000000000000, 0.000000000000000000, 1.000000000000000000 ) ) ;
#61 = AXIS2_PLACEMENT_3D ( 'NONE', #154, #56, #30 ) ;
#62 =( GEOMETRIC_REPRESENTATION_CONTEXT ( 3 ) GLOBAL_UNCERTAINTY_ASSIGNED_CONTEXT ( ( #166 ) ) GLOBAL_UNIT_ASSIGNED_CONTEXT ( ( #242, #23, #143 ) ) REPRESENTATION_CONTEXT ( 'NONE', 'WORKASPACE' ) );
#63 = CYLINDRICAL_SURFACE ( 'NONE', #207, 9.000000000000000000 ) ;
#64 = EDGE_CURVE ( 'NONE', #194, #264, #153, .T. ) ;
#65 = EDGE_LOOP ( 'NONE', ( #186, #87 ) ) ;
#66 = ORIENTED_EDGE ( 'NONE', *, *, #215, .T. ) ;
#67 = APPROVAL_PERSON_ORGANIZATION ( #147, #148, #292 ) ;
#68 = ORIENTED_EDGE ( 'NONE', *, *, #215, .F. ) ;
#69 = DIRECTION ( 'NONE',  ( -1.000000000000000000, 1.224646799147353454E-16, 0.000000000000000000 ) ) ;
#70 = AXIS2_PLACEMENT_3D ( 'NONE', #250, #275, #132 ) ;
#71 = APPROVAL ( #245, 'NEURÈENÝ' ) ;
#72 = CIRCLE ( 'NONE', #249, 6.299999999999998934 ) ;
#73 = DIRECTION ( 'NONE',  ( -0.000000000000000000, -0.000000000000000000, -1.000000000000000000 ) ) ;
#74 = EDGE_LOOP ( 'NONE', ( #52, #161, #144, #230 ) ) ;
#75 = ORIENTED_EDGE ( 'NONE', *, *, #235, .T. ) ;
#76 = APPROVAL_STATUS ( 'not_yet_approved' ) ;
#77 = CALENDAR_DATE ( 2022, 7, 7 ) ;
#78 = DIRECTION ( 'NONE',  ( 1.000000000000000000, 0.000000000000000000, -0.000000000000000000 ) ) ;
#79 = APPROVAL_DATE_TIME ( #171, #223 ) ;
#80 = PRODUCT_DEFINITION ( 'NEZNÁMÝ', '', #129, #18 ) ;
#81 = LINE ( 'NONE', #222, #261 ) ;
#82 = CARTESIAN_POINT ( 'NONE',  ( 6.099999999999999645, 7.470345474798854293E-16, 132.0000000000000000 ) ) ;
#83 = CARTESIAN_POINT ( 'NONE',  ( 0.000000000000000000, 0.000000000000000000, 0.000000000000000000 ) ) ;
#84 = TOROIDAL_SURFACE ( 'NONE', #89, 6.299999999999998934, 0.2000000000000000111 ) ;
#85 = ADVANCED_FACE ( 'NONE', ( #259, #254 ), #37, .T. ) ;
#86 = VERTEX_POINT ( 'NONE', #203 ) ;
#87 = ORIENTED_EDGE ( 'NONE', *, *, #99, .F. ) ;
#88 = ORIENTED_EDGE ( 'NONE', *, *, #7, .T. ) ;
#89 = AXIS2_PLACEMENT_3D ( 'NONE', #252, #4, #150 ) ;
#90 = ORIENTED_EDGE ( 'NONE', *, *, #172, .F. ) ;
#91 = EDGE_CURVE ( 'NONE', #282, #86, #118, .T. ) ;
#92 = DIRECTION ( 'NONE',  ( 1.000000000000000000, 0.000000000000000000, 0.000000000000000000 ) ) ;
#93 = APPROVAL_PERSON_ORGANIZATION ( #1, #71, #3 ) ;
#94 = PERSON_AND_ORGANIZATION_ROLE ( 'design_owner' ) ;
#95 = PRODUCT ( '345a', '345a', '', ( #217 ) ) ;
#96 = VECTOR ( 'NONE', #256, 1000.000000000000000 ) ;
#97 = ORIENTED_EDGE ( 'NONE', *, *, #99, .T. ) ;
#98 = DATE_TIME_ROLE ( 'creation_date' ) ;
#99 = EDGE_CURVE ( 'NONE', #298, #22, #189, .T. ) ;
#100 = EDGE_LOOP ( 'NONE', ( #281, #75, #97, #183 ) ) ;
#101 = PERSON_AND_ORGANIZATION ( #13, #306 ) ;
#102 = AXIS2_PLACEMENT_3D ( 'NONE', #38, #58, #221 ) ;
#103 = CARTESIAN_POINT ( 'NONE',  ( 0.000000000000000000, 0.000000000000000000, 7.000000000000000000 ) ) ;
#104 = ADVANCED_FACE ( 'NONE', ( #36 ), #234, .F. ) ;
#105 = FACE_OUTER_BOUND ( 'NONE', #49, .T. ) ;
#106 = AXIS2_PLACEMENT_3D ( 'NONE', #216, #73, #48 ) ;
#107 = CARTESIAN_POINT ( 'NONE',  ( 6.299999999999998934, 0.000000000000000000, 6.999999999999999112 ) ) ;
#108 = DIRECTION ( 'NONE',  ( -1.000000000000000000, 0.000000000000000000, 0.000000000000000000 ) ) ;
#109 = DIRECTION ( 'NONE',  ( 1.000000000000000000, 0.000000000000000000, -0.000000000000000000 ) ) ;
#110 = AXIS2_PLACEMENT_3D ( 'NONE', #103, #152, #108 ) ;
#111 = CARTESIAN_POINT ( 'NONE',  ( -6.099999999999999645, 0.000000000000000000, 132.0000000000000000 ) ) ;
#112 = EDGE_LOOP ( 'NONE', ( #307, #289 ) ) ;
#113 = DIRECTION ( 'NONE',  ( -0.000000000000000000, -0.000000000000000000, -1.000000000000000000 ) ) ;
#114 = EDGE_CURVE ( 'NONE', #10, #194, #276, .T. ) ;
#115 = LINE ( 'NONE', #195, #237 ) ;
#116 = FACE_OUTER_BOUND ( 'NONE', #169, .T. ) ;
#117 = CARTESIAN_POINT ( 'NONE',  ( 0.000000000000000000, 0.000000000000000000, 132.0000000000000000 ) ) ;
#118 = CIRCLE ( 'NONE', #15, 9.000000000000000000 ) ;
#119 = CYLINDRICAL_SURFACE ( 'NONE', #138, 6.099999999999999645 ) ;
#120 = APPROVAL_DATE_TIME ( #31, #148 ) ;
#121 = DIRECTION ( 'NONE',  ( 0.000000000000000000, 0.000000000000000000, 1.000000000000000000 ) ) ;
#122 = CALENDAR_DATE ( 2022, 7, 7 ) ;
#123 = PERSON_AND_ORGANIZATION_ROLE ( 'creator' ) ;
#124 = CARTESIAN_POINT ( 'NONE',  ( 0.000000000000000000, 0.000000000000000000, 7.000000000000000000 ) ) ;
#125 = EDGE_CURVE ( 'NONE', #194, #10, #227, .T. ) ;
#126 = DATE_AND_TIME ( #77, #231 ) ;
#127 = CARTESIAN_POINT ( 'NONE',  ( 0.000000000000000000, 0.000000000000000000, 7.000000000000000000 ) ) ;
#128 = CARTESIAN_POINT ( 'NONE',  ( 0.000000000000000000, 0.000000000000000000, 132.0000000000000000 ) ) ;
#129 = PRODUCT_DEFINITION_FORMATION_WITH_SPECIFIED_SOURCE ( 'LIBOVOLNÝ', '', #95, .NOT_KNOWN. ) ;
#130 = CARTESIAN_POINT ( 'NONE',  ( -6.099999999999999645, 0.000000000000000000, 7.199999999999998401 ) ) ;
#131 = CARTESIAN_POINT ( 'NONE',  ( 0.000000000000000000, 0.000000000000000000, 7.000000000000000000 ) ) ;
#132 = DIRECTION ( 'NONE',  ( 1.000000000000000000, 0.000000000000000000, 0.000000000000000000 ) ) ;
#133 = DIRECTION ( 'NONE',  ( 0.000000000000000000, 0.000000000000000000, 1.000000000000000000 ) ) ;
#134 = DIRECTION ( 'NONE',  ( 1.000000000000000000, 0.000000000000000000, 0.000000000000000000 ) ) ;
#135 = CC_DESIGN_PERSON_AND_ORGANIZATION_ASSIGNMENT ( #191, #94, ( #95 ) ) ;
#136 = ORIENTED_EDGE ( 'NONE', *, *, #2, .T. ) ;
#137 = CARTESIAN_POINT ( 'NONE',  ( -6.299999999999998934, 7.715274834628324392E-16, 7.199999999999998401 ) ) ;
#138 = AXIS2_PLACEMENT_3D ( 'NONE', #140, #214, #20 ) ;
#139 = ADVANCED_BREP_SHAPE_REPRESENTATION ( '345a', ( #184, #21 ), #62 ) ;
#140 = CARTESIAN_POINT ( 'NONE',  ( 0.000000000000000000, 0.000000000000000000, 132.0000000000000000 ) ) ;
#141 = VERTEX_POINT ( 'NONE', #107 ) ;
#142 = EDGE_CURVE ( 'NONE', #22, #298, #197, .T. ) ;
#143 =( NAMED_UNIT ( * ) SI_UNIT ( $, .STERADIAN. ) SOLID_ANGLE_UNIT ( ) );
#144 = ORIENTED_EDGE ( 'NONE', *, *, #286, .F. ) ;
#145 = CALENDAR_DATE ( 2022, 7, 7 ) ;
#146 = APPROVAL_DATE_TIME ( #294, #71 ) ;
#147 = PERSON_AND_ORGANIZATION ( #13, #306 ) ;
#148 = APPROVAL ( #76, 'NEURÈENÝ' ) ;
#149 = AXIS2_PLACEMENT_3D ( 'NONE', #117, #239, #263 ) ;
#150 = DIRECTION ( 'NONE',  ( 1.000000000000000000, 0.000000000000000000, 0.000000000000000000 ) ) ;
#151 = PERSON_AND_ORGANIZATION_ROLE ( 'design_supplier' ) ;
#152 = DIRECTION ( 'NONE',  ( -0.000000000000000000, -0.000000000000000000, -1.000000000000000000 ) ) ;
#153 = CIRCLE ( 'NONE', #9, 0.1999999999999996503 ) ;
#154 = CARTESIAN_POINT ( 'NONE',  ( 0.000000000000000000, 0.000000000000000000, 7.000000000000000000 ) ) ;
#155 = DIRECTION ( 'NONE',  ( 0.000000000000000000, -1.000000000000000000, 0.000000000000000000 ) ) ;
#156 = EDGE_CURVE ( 'NONE', #10, #141, #47, .T. ) ;
#157 = DIRECTION ( 'NONE',  ( -1.000000000000000000, 0.000000000000000000, 0.000000000000000000 ) ) ;
#158 = ORIENTED_EDGE ( 'NONE', *, *, #44, .T. ) ;
#159 = AXIS2_PLACEMENT_3D ( 'NONE', #247, #199, #293 ) ;
#160 = ORIENTED_EDGE ( 'NONE', *, *, #64, .F. ) ;
#161 = ORIENTED_EDGE ( 'NONE', *, *, #64, .T. ) ;
#162 = ADVANCED_FACE ( 'NONE', ( #181 ), #84, .F. ) ;
#163 = ORIENTED_EDGE ( 'NONE', *, *, #44, .F. ) ;
#164 = ORIENTED_EDGE ( 'NONE', *, *, #125, .T. ) ;
#165 = APPLICATION_CONTEXT ( 'configuration controlled 3d designs of mechanical parts and assemblies' ) ;
#166 = UNCERTAINTY_MEASURE_WITH_UNIT (LENGTH_MEASURE( 1.000000000000000082E-05 ), #242, 'distance_accuracy_value', 'NONE');
#167 = PERSON_AND_ORGANIZATION ( #13, #306 ) ;
#168 = CC_DESIGN_APPROVAL ( #148, ( #129 ) ) ;
#169 = EDGE_LOOP ( 'NONE', ( #68, #241, #136, #164 ) ) ;
#170 = APPROVAL_ROLE ( '' ) ;
#171 = DATE_AND_TIME ( #145, #54 ) ;
#172 = EDGE_CURVE ( 'NONE', #86, #282, #17, .T. ) ;
#173 = PERSON_AND_ORGANIZATION_ROLE ( 'classification_officer' ) ;
#174 = COORDINATED_UNIVERSAL_TIME_OFFSET ( 1, 0, .AHEAD. ) ;
#175 = LOCAL_TIME ( 11, 45, 13.00000000000000000, #177 ) ;
#176 = CARTESIAN_POINT ( 'NONE',  ( 0.000000000000000000, 0.000000000000000000, 0.000000000000000000 ) ) ;
#177 = COORDINATED_UNIVERSAL_TIME_OFFSET ( 1, 0, .AHEAD. ) ;
#178 = DIRECTION ( 'NONE',  ( 1.000000000000000000, 0.000000000000000000, 0.000000000000000000 ) ) ;
#179 = DIRECTION ( 'NONE',  ( -0.000000000000000000, -0.000000000000000000, -1.000000000000000000 ) ) ;
#180 = CC_DESIGN_DATE_AND_TIME_ASSIGNMENT ( #126, #27, ( #182 ) ) ;
#181 = FACE_OUTER_BOUND ( 'NONE', #39, .T. ) ;
#182 = SECURITY_CLASSIFICATION ( '', '', #246 ) ;
#183 = ORIENTED_EDGE ( 'NONE', *, *, #300, .F. ) ;
#184 = MANIFOLD_SOLID_BREP ( 'Zaoblit1', #33 ) ;
#185 = ORIENTED_EDGE ( 'NONE', *, *, #229, .T. ) ;
#186 = ORIENTED_EDGE ( 'NONE', *, *, #142, .F. ) ;
#187 = AXIS2_PLACEMENT_3D ( 'NONE', #176, #225, #205 ) ;
#188 = EDGE_LOOP ( 'NONE', ( #210, #158 ) ) ;
#189 = CIRCLE ( 'NONE', #59, 9.000000000000000000 ) ;
#190 = APPROVAL_PERSON_ORGANIZATION ( #167, #223, #170 ) ;
#191 = PERSON_AND_ORGANIZATION ( #13, #306 ) ;
#192 = PLANE ( 'NONE',  #11 ) ;
#193 = CC_DESIGN_PERSON_AND_ORGANIZATION_ASSIGNMENT ( #55, #151, ( #129 ) ) ;
#194 = VERTEX_POINT ( 'NONE', #130 ) ;
#195 = CARTESIAN_POINT ( 'NONE',  ( -9.000000000000000000, 0.000000000000000000, 7.000000000000000000 ) ) ;
#196 = APPLICATION_PROTOCOL_DEFINITION ( 'international standard', 'config_control_design', 1994, #280 ) ;
#197 = CIRCLE ( 'NONE', #187, 9.000000000000000000 ) ;
#198 = CALENDAR_DATE ( 2022, 7, 7 ) ;
#199 = DIRECTION ( 'NONE',  ( 0.000000000000000000, 0.000000000000000000, 1.000000000000000000 ) ) ;
#200 = PERSON_AND_ORGANIZATION_ROLE ( 'creator' ) ;
#201 = LOCAL_TIME ( 11, 45, 13.00000000000000000, #174 ) ;
#202 = DIRECTION ( 'NONE',  ( 0.000000000000000000, 0.000000000000000000, 1.000000000000000000 ) ) ;
#203 = CARTESIAN_POINT ( 'NONE',  ( -9.000000000000000000, 0.000000000000000000, 7.000000000000000000 ) ) ;
#204 = CIRCLE ( 'NONE', #212, 6.099999999999999645 ) ;
#205 = DIRECTION ( 'NONE',  ( 1.000000000000000000, 0.000000000000000000, 0.000000000000000000 ) ) ;
#206 = DIRECTION ( 'NONE',  ( 0.000000000000000000, 0.000000000000000000, 1.000000000000000000 ) ) ;
#207 = AXIS2_PLACEMENT_3D ( 'NONE', #127, #179, #157 ) ;
#208 = CC_DESIGN_SECURITY_CLASSIFICATION ( #182, ( #129 ) ) ;
#209 = ADVANCED_FACE ( 'NONE', ( #32 ), #63, .T. ) ;
#210 = ORIENTED_EDGE ( 'NONE', *, *, #286, .T. ) ;
#211 = ORIENTED_EDGE ( 'NONE', *, *, #300, .T. ) ;
#212 = AXIS2_PLACEMENT_3D ( 'NONE', #43, #133, #134 ) ;
#213 = DIRECTION ( 'NONE',  ( 1.224646799147353207E-16, 1.000000000000000000, -0.000000000000000000 ) ) ;
#214 = DIRECTION ( 'NONE',  ( -0.000000000000000000, -0.000000000000000000, -1.000000000000000000 ) ) ;
#215 = EDGE_CURVE ( 'NONE', #232, #10, #277, .T. ) ;
#216 = CARTESIAN_POINT ( 'NONE',  ( 0.000000000000000000, 0.000000000000000000, 7.000000000000000000 ) ) ;
#217 = MECHANICAL_CONTEXT ( 'NONE', #165, 'mechanical' ) ;
#218 = PERSON_AND_ORGANIZATION ( #13, #306 ) ;
#219 = ADVANCED_FACE ( 'NONE', ( #255 ), #226, .T. ) ;
#220 = CALENDAR_DATE ( 2022, 7, 7 ) ;
#221 = DIRECTION ( 'NONE',  ( 1.000000000000000000, 0.000000000000000000, 0.000000000000000000 ) ) ;
#222 = CARTESIAN_POINT ( 'NONE',  ( 9.000000000000000000, 1.102182119232617714E-15, 7.000000000000000000 ) ) ;
#223 = APPROVAL ( #291, 'NEURÈENÝ' ) ;
#224 = AXIS2_PLACEMENT_3D ( 'NONE', #273, #155, #295 ) ;
#225 = DIRECTION ( 'NONE',  ( 0.000000000000000000, 0.000000000000000000, 1.000000000000000000 ) ) ;
#226 = CYLINDRICAL_SURFACE ( 'NONE', #110, 9.000000000000000000 ) ;
#227 = CIRCLE ( 'NONE', #102, 6.099999999999999645 ) ;
#228 = EDGE_LOOP ( 'NONE', ( #265, #90, #211, #45 ) ) ;
#229 = EDGE_CURVE ( 'NONE', #232, #257, #244, .T. ) ;
#230 = ORIENTED_EDGE ( 'NONE', *, *, #156, .F. ) ;
#231 = LOCAL_TIME ( 11, 45, 13.00000000000000000, #53 ) ;
#232 = VERTEX_POINT ( 'NONE', #82 ) ;
#233 = CARTESIAN_POINT ( 'NONE',  ( 0.000000000000000000, 0.000000000000000000, 7.000000000000000000 ) ) ;
#234 = TOROIDAL_SURFACE ( 'NONE', #159, 6.299999999999998934, 0.2000000000000000111 ) ;
#235 = EDGE_CURVE ( 'NONE', #282, #298, #81, .T. ) ;
#236 = DIRECTION ( 'NONE',  ( 0.000000000000000000, 0.000000000000000000, 1.000000000000000000 ) ) ;
#237 = VECTOR ( 'NONE', #262, 1000.000000000000000 ) ;
#238 = APPLICATION_PROTOCOL_DEFINITION ( 'international standard', 'config_control_design', 1994, #165 ) ;
#239 = DIRECTION ( 'NONE',  ( -0.000000000000000000, -0.000000000000000000, -1.000000000000000000 ) ) ;
#240 = CARTESIAN_POINT ( 'NONE',  ( 9.000000000000000000, 1.102182119232617714E-15, 7.000000000000000000 ) ) ;
#241 = ORIENTED_EDGE ( 'NONE', *, *, #7, .F. ) ;
#242 =( LENGTH_UNIT ( ) NAMED_UNIT ( * ) SI_UNIT ( .MILLI., .METRE. ) );
#243 = CC_DESIGN_PERSON_AND_ORGANIZATION_ASSIGNMENT ( #101, #200, ( #129 ) ) ;
#244 = CIRCLE ( 'NONE', #278, 6.099999999999999645 ) ;
#245 = APPROVAL_STATUS ( 'not_yet_approved' ) ;
#246 = SECURITY_CLASSIFICATION_LEVEL ( 'unclassified' ) ;
#247 = CARTESIAN_POINT ( 'NONE',  ( 0.000000000000000000, 0.000000000000000000, 7.199999999999998401 ) ) ;
#248 = CC_DESIGN_DATE_AND_TIME_ASSIGNMENT ( #270, #98, ( #80 ) ) ;
#249 = AXIS2_PLACEMENT_3D ( 'NONE', #233, #113, #285 ) ;
#250 = CARTESIAN_POINT ( 'NONE',  ( 0.000000000000000000, 0.000000000000000000, 7.199999999999998401 ) ) ;
#251 = LOCAL_TIME ( 11, 45, 13.00000000000000000, #274 ) ;
#252 = CARTESIAN_POINT ( 'NONE',  ( 0.000000000000000000, 0.000000000000000000, 7.199999999999998401 ) ) ;
#253 = ADVANCED_FACE ( 'NONE', ( #105 ), #26, .T. ) ;
#254 = FACE_OUTER_BOUND ( 'NONE', #112, .T. ) ;
#255 = FACE_OUTER_BOUND ( 'NONE', #228, .T. ) ;
#256 = DIRECTION ( 'NONE',  ( -0.000000000000000000, -0.000000000000000000, -1.000000000000000000 ) ) ;
#257 = VERTEX_POINT ( 'NONE', #19 ) ;
#258 = PLANE ( 'NONE',  #42 ) ;
#259 = FACE_BOUND ( 'NONE', #188, .T. ) ;
#260 = AXIS2_PLACEMENT_3D ( 'NONE', #131, #206, #78 ) ;
#261 = VECTOR ( 'NONE', #5, 1000.000000000000000 ) ;
#262 = DIRECTION ( 'NONE',  ( -0.000000000000000000, -0.000000000000000000, -1.000000000000000000 ) ) ;
#263 = DIRECTION ( 'NONE',  ( -1.000000000000000000, 0.000000000000000000, 0.000000000000000000 ) ) ;
#264 = VERTEX_POINT ( 'NONE', #305 ) ;
#265 = ORIENTED_EDGE ( 'NONE', *, *, #235, .F. ) ;
#266 = ADVANCED_FACE ( 'NONE', ( #116 ), #119, .T. ) ;
#267 = COORDINATED_UNIVERSAL_TIME_OFFSET ( 1, 0, .AHEAD. ) ;
#268 = PERSON_AND_ORGANIZATION ( #13, #306 ) ;
#269 = ORIENTED_EDGE ( 'NONE', *, *, #229, .F. ) ;
#270 = DATE_AND_TIME ( #122, #201 ) ;
#271 = CC_DESIGN_APPROVAL ( #223, ( #80 ) ) ;
#272 = ADVANCED_FACE ( 'NONE', ( #288 ), #192, .F. ) ;
#273 = CARTESIAN_POINT ( 'NONE',  ( 6.299999999999998934, 0.000000000000000000, 7.199999999999998401 ) ) ;
#274 = COORDINATED_UNIVERSAL_TIME_OFFSET ( 1, 0, .AHEAD. ) ;
#275 = DIRECTION ( 'NONE',  ( 0.000000000000000000, 0.000000000000000000, 1.000000000000000000 ) ) ;
#276 = CIRCLE ( 'NONE', #70, 6.099999999999999645 ) ;
#277 = LINE ( 'NONE', #34, #297 ) ;
#278 = AXIS2_PLACEMENT_3D ( 'NONE', #128, #202, #296 ) ;
#279 = DIRECTION ( 'NONE',  ( 1.000000000000000000, 0.000000000000000000, 0.000000000000000000 ) ) ;
#280 = APPLICATION_CONTEXT ( 'configuration controlled 3d designs of mechanical parts and assemblies' ) ;
#281 = ORIENTED_EDGE ( 'NONE', *, *, #91, .F. ) ;
#282 = VERTEX_POINT ( 'NONE', #240 ) ;
#283 = CARTESIAN_POINT ( 'NONE',  ( -9.000000000000000000, 0.000000000000000000, 0.000000000000000000 ) ) ;
#284 = PRODUCT_RELATED_PRODUCT_CATEGORY ( 'detail', '', ( #95 ) ) ;
#285 = DIRECTION ( 'NONE',  ( 1.000000000000000000, 0.000000000000000000, 0.000000000000000000 ) ) ;
#286 = EDGE_CURVE ( 'NONE', #141, #264, #287, .T. ) ;
#287 = CIRCLE ( 'NONE', #106, 6.299999999999998934 ) ;
#288 = FACE_OUTER_BOUND ( 'NONE', #65, .T. ) ;
#289 = ORIENTED_EDGE ( 'NONE', *, *, #91, .T. ) ;
#290 = DIRECTION ( 'NONE',  ( 1.000000000000000000, 0.000000000000000000, -0.000000000000000000 ) ) ;
#291 = APPROVAL_STATUS ( 'not_yet_approved' ) ;
#292 = APPROVAL_ROLE ( '' ) ;
#293 = DIRECTION ( 'NONE',  ( 1.000000000000000000, 0.000000000000000000, 0.000000000000000000 ) ) ;
#294 = DATE_AND_TIME ( #198, #175 ) ;
#295 = DIRECTION ( 'NONE',  ( 0.000000000000000000, 0.000000000000000000, -1.000000000000000000 ) ) ;
#296 = DIRECTION ( 'NONE',  ( 1.000000000000000000, 0.000000000000000000, 0.000000000000000000 ) ) ;
#297 = VECTOR ( 'NONE', #6, 1000.000000000000000 ) ;
#298 = VERTEX_POINT ( 'NONE', #46 ) ;
#299 = ORIENTED_EDGE ( 'NONE', *, *, #2, .F. ) ;
#300 = EDGE_CURVE ( 'NONE', #86, #22, #115, .T. ) ;
#301 = ORIENTED_EDGE ( 'NONE', *, *, #114, .T. ) ;
#302 = ORIENTED_EDGE ( 'NONE', *, *, #114, .F. ) ;
#303 = CC_DESIGN_PERSON_AND_ORGANIZATION_ASSIGNMENT ( #218, #123, ( #80 ) ) ;
#304 = CARTESIAN_POINT ( 'NONE',  ( 0.000000000000000000, 0.000000000000000000, 0.000000000000000000 ) ) ;
#305 = CARTESIAN_POINT ( 'NONE',  ( -6.299999999999998934, 7.715274834628324392E-16, 6.999999999999999112 ) ) ;
#306 = ORGANIZATION ( 'NEURÈENÝ', 'NEURÈENÝ', '' ) ;
#307 = ORIENTED_EDGE ( 'NONE', *, *, #172, .T. ) ;
ENDSEC;
END-ISO-10303-21;
