ISO-10303-21;
HEADER;
FILE_DESCRIPTION (( 'STEP AP203' ),
    '1' );
FILE_NAME ('2063.STEP',
    '2022-07-07T09:41:06',
    ( '' ),
    ( '' ),
    'SwSTEP 2.0',
    'SolidWorks 2019',
    '' );
FILE_SCHEMA (( 'CONFIG_CONTROL_DESIGN' ));
ENDSEC;

DATA;
#1 = AXIS2_PLACEMENT_3D ( 'NONE', #272, #46, #142 ) ;
#2 = ADVANCED_FACE ( 'NONE', ( #151 ), #25, .F. ) ;
#3 = APPLICATION_CONTEXT ( 'configuration controlled 3d designs of mechanical parts and assemblies' ) ;
#4 = AXIS2_PLACEMENT_3D ( 'NONE', #290, #82, #233 ) ;
#5 = CIRCLE ( 'NONE', #264, 0.1999999999999996503 ) ;
#6 = ADVANCED_FACE ( 'NONE', ( #95 ), #37, .T. ) ;
#7 = ORIENTED_EDGE ( 'NONE', *, *, #80, .T. ) ;
#8 = CARTESIAN_POINT ( 'NONE',  ( -7.000000000000000888, 0.000000000000000000, 7.200000000000011724 ) ) ;
#9 = DIRECTION ( 'NONE',  ( 1.224646799147353207E-16, 1.000000000000000000, -0.000000000000000000 ) ) ;
#10 = APPROVAL_STATUS ( 'not_yet_approved' ) ;
#11 = EDGE_LOOP ( 'NONE', ( #243, #141, #270, #291 ) ) ;
#12 = DIRECTION ( 'NONE',  ( 0.000000000000000000, 0.000000000000000000, 1.000000000000000000 ) ) ;
#13 = CARTESIAN_POINT ( 'NONE',  ( -7.200000000000001066, 8.817456953860944275E-16, 7.200000000000011724 ) ) ;
#14 = DATE_AND_TIME ( #256, #283 ) ;
#15 = EDGE_CURVE ( 'NONE', #271, #221, #193, .T. ) ;
#16 = CARTESIAN_POINT ( 'NONE',  ( 0.000000000000000000, 0.000000000000000000, 0.000000000000000000 ) ) ;
#17 = FACE_OUTER_BOUND ( 'NONE', #155, .T. ) ;
#18 = DIRECTION ( 'NONE',  ( -1.000000000000000000, 0.000000000000000000, 0.000000000000000000 ) ) ;
#19 = FACE_OUTER_BOUND ( 'NONE', #27, .T. ) ;
#20 = CALENDAR_DATE ( 2022, 7, 7 ) ;
#21 = AXIS2_PLACEMENT_3D ( 'NONE', #13, #9, #75 ) ;
#22 = AXIS2_PLACEMENT_3D ( 'NONE', #281, #202, #253 ) ;
#23 = ADVANCED_FACE ( 'NONE', ( #254 ), #250, .T. ) ;
#24 = ADVANCED_FACE ( 'NONE', ( #31 ), #91, .F. ) ;
#25 = TOROIDAL_SURFACE ( 'NONE', #22, 7.200000000000001066, 0.2000000000000000111 ) ;
#26 = CIRCLE ( 'NONE', #200, 11.00000000000000000 ) ;
#27 = EDGE_LOOP ( 'NONE', ( #246, #58, #116, #120 ) ) ;
#28 = CARTESIAN_POINT ( 'NONE',  ( 0.000000000000000000, 0.000000000000000000, 7.000000000000000000 ) ) ;
#29 = APPROVAL_DATE_TIME ( #158, #201 ) ;
#30 = EDGE_LOOP ( 'NONE', ( #303, #196, #139, #230 ) ) ;
#31 = FACE_OUTER_BOUND ( 'NONE', #77, .T. ) ;
#32 = DIRECTION ( 'NONE',  ( 0.000000000000000000, 0.000000000000000000, -1.000000000000000000 ) ) ;
#33 = DIRECTION ( 'NONE',  ( 0.000000000000000000, 0.000000000000000000, 1.000000000000000000 ) ) ;
#34 = ORIENTED_EDGE ( 'NONE', *, *, #64, .T. ) ;
#35 = DIRECTION ( 'NONE',  ( 1.000000000000000000, 0.000000000000000000, -0.000000000000000000 ) ) ;
#36 = APPROVAL_ROLE ( '' ) ;
#37 = CYLINDRICAL_SURFACE ( 'NONE', #154, 7.000000000000000888 ) ;
#38 = CARTESIAN_POINT ( 'NONE',  ( 0.000000000000000000, 0.000000000000000000, 207.0000000000000284 ) ) ;
#39 = CIRCLE ( 'NONE', #218, 11.00000000000000000 ) ;
#40 = PERSON_AND_ORGANIZATION ( #160, #265 ) ;
#41 = CC_DESIGN_APPROVAL ( #65, ( #216 ) ) ;
#42 = ORIENTED_EDGE ( 'NONE', *, *, #135, .T. ) ;
#43 = CARTESIAN_POINT ( 'NONE',  ( -11.00000000000000000, 0.000000000000000000, 0.000000000000000000 ) ) ;
#44 = MECHANICAL_CONTEXT ( 'NONE', #3, 'mechanical' ) ;
#45 = TOROIDAL_SURFACE ( 'NONE', #4, 7.200000000000001066, 0.2000000000000000111 ) ;
#46 = DIRECTION ( 'NONE',  ( 0.000000000000000000, 0.000000000000000000, 1.000000000000000000 ) ) ;
#47 = ORIENTED_EDGE ( 'NONE', *, *, #109, .F. ) ;
#48 = CARTESIAN_POINT ( 'NONE',  ( 0.000000000000000000, 0.000000000000000000, 7.000000000000000000 ) ) ;
#49 = CARTESIAN_POINT ( 'NONE',  ( 0.000000000000000000, 0.000000000000000000, 7.200000000000011724 ) ) ;
#50 = PERSON_AND_ORGANIZATION ( #160, #265 ) ;
#51 = VERTEX_POINT ( 'NONE', #8 ) ;
#52 = DIRECTION ( 'NONE',  ( 0.000000000000000000, 0.000000000000000000, 1.000000000000000000 ) ) ;
#53 = CARTESIAN_POINT ( 'NONE',  ( -7.000000000000000888, 0.000000000000000000, 207.0000000000000284 ) ) ;
#54 = ORIENTED_EDGE ( 'NONE', *, *, #183, .T. ) ;
#55 = CARTESIAN_POINT ( 'NONE',  ( 0.000000000000000000, 0.000000000000000000, 7.000000000000000000 ) ) ;
#56 = DIRECTION ( 'NONE',  ( 0.000000000000000000, 0.000000000000000000, 1.000000000000000000 ) ) ;
#57 = DATE_AND_TIME ( #280, #240 ) ;
#58 = ORIENTED_EDGE ( 'NONE', *, *, #215, .T. ) ;
#59 = SECURITY_CLASSIFICATION_LEVEL ( 'unclassified' ) ;
#60 = LOCAL_TIME ( 11, 41, 6.000000000000000000, #214 ) ;
#61 = EDGE_CURVE ( 'NONE', #275, #144, #284, .T. ) ;
#62 = AXIS2_PLACEMENT_3D ( 'NONE', #148, #208, #279 ) ;
#63 = CC_DESIGN_SECURITY_CLASSIFICATION ( #216, ( #136 ) ) ;
#64 = EDGE_CURVE ( 'NONE', #144, #275, #206, .T. ) ;
#65 = APPROVAL ( #205, 'NEURÈENÝ' ) ;
#66 = VECTOR ( 'NONE', #244, 1000.000000000000000 ) ;
#67 = ADVANCED_FACE ( 'NONE', ( #19 ), #45, .F. ) ;
#68 = DIRECTION ( 'NONE',  ( 0.000000000000000000, 0.000000000000000000, 1.000000000000000000 ) ) ;
#69 = ORIENTED_EDGE ( 'NONE', *, *, #61, .T. ) ;
#70 = DIRECTION ( 'NONE',  ( 1.000000000000000000, 0.000000000000000000, -0.000000000000000000 ) ) ;
#71 = DIRECTION ( 'NONE',  ( 1.000000000000000000, 0.000000000000000000, -0.000000000000000000 ) ) ;
#72 = DIRECTION ( 'NONE',  ( 1.000000000000000000, 0.000000000000000000, 0.000000000000000000 ) ) ;
#73 = ORIENTED_EDGE ( 'NONE', *, *, #157, .T. ) ;
#74 = CARTESIAN_POINT ( 'NONE',  ( -7.000000000000000888, 0.000000000000000000, 207.0000000000000284 ) ) ;
#75 = DIRECTION ( 'NONE',  ( -1.000000000000000000, 1.224646799147358384E-16, 0.000000000000000000 ) ) ;
#76 = SHAPE_DEFINITION_REPRESENTATION ( #177, #94 ) ;
#77 = EDGE_LOOP ( 'NONE', ( #112, #164 ) ) ;
#78 = FACE_OUTER_BOUND ( 'NONE', #30, .T. ) ;
#79 = PERSON_AND_ORGANIZATION ( #160, #265 ) ;
#80 = EDGE_CURVE ( 'NONE', #249, #292, #96, .T. ) ;
#81 = ORIENTED_EDGE ( 'NONE', *, *, #134, .T. ) ;
#82 = DIRECTION ( 'NONE',  ( 0.000000000000000000, 0.000000000000000000, 1.000000000000000000 ) ) ;
#83 = CARTESIAN_POINT ( 'NONE',  ( 7.000000000000000888, 8.572527594031474176E-16, 207.0000000000000284 ) ) ;
#84 = APPROVAL_DATE_TIME ( #57, #176 ) ;
#85 = EDGE_CURVE ( 'NONE', #167, #185, #257, .T. ) ;
#86 = CIRCLE ( 'NONE', #220, 7.000000000000000888 ) ;
#87 = MANIFOLD_SOLID_BREP ( 'Zaoblit1', #268 ) ;
#88 = APPROVAL_PERSON_ORGANIZATION ( #248, #201, #245 ) ;
#89 = ADVANCED_FACE ( 'NONE', ( #78 ), #293, .T. ) ;
#90 = EDGE_LOOP ( 'NONE', ( #34, #69 ) ) ;
#91 = PLANE ( 'NONE',  #274 ) ;
#92 = DIRECTION ( 'NONE',  ( 1.000000000000000000, 0.000000000000000000, 0.000000000000000000 ) ) ;
#93 = DATE_AND_TIME ( #182, #286 ) ;
#94 = ADVANCED_BREP_SHAPE_REPRESENTATION ( '2063', ( #87, #132 ), #287 ) ;
#95 = FACE_OUTER_BOUND ( 'NONE', #226, .T. ) ;
#96 = LINE ( 'NONE', #203, #66 ) ;
#97 = LINE ( 'NONE', #118, #242 ) ;
#98 = PERSON_AND_ORGANIZATION ( #160, #265 ) ;
#99 = EDGE_LOOP ( 'NONE', ( #129, #300, #104, #278 ) ) ;
#100 = CYLINDRICAL_SURFACE ( 'NONE', #124, 11.00000000000000000 ) ;
#101 = DIRECTION ( 'NONE',  ( 1.000000000000000000, 0.000000000000000000, 0.000000000000000000 ) ) ;
#102 = APPROVAL_STATUS ( 'not_yet_approved' ) ;
#103 = ADVANCED_FACE ( 'NONE', ( #105 ), #100, .T. ) ;
#104 = ORIENTED_EDGE ( 'NONE', *, *, #162, .T. ) ;
#105 = FACE_OUTER_BOUND ( 'NONE', #11, .T. ) ;
#106 = CIRCLE ( 'NONE', #288, 7.000000000000000888 ) ;
#107 = PLANE ( 'NONE',  #178 ) ;
#108 = CC_DESIGN_PERSON_AND_ORGANIZATION_ASSIGNMENT ( #79, #188, ( #192 ) ) ;
#109 = EDGE_CURVE ( 'NONE', #249, #295, #190, .T. ) ;
#110 = AXIS2_PLACEMENT_3D ( 'NONE', #211, #12, #152 ) ;
#111 = EDGE_LOOP ( 'NONE', ( #223, #147 ) ) ;
#112 = ORIENTED_EDGE ( 'NONE', *, *, #85, .F. ) ;
#113 = DIRECTION ( 'NONE',  ( -0.000000000000000000, -0.000000000000000000, -1.000000000000000000 ) ) ;
#114 = CARTESIAN_POINT ( 'NONE',  ( 7.000000000000000888, 8.572527594031474176E-16, 7.200000000000011724 ) ) ;
#115 = COORDINATED_UNIVERSAL_TIME_OFFSET ( 1, 0, .AHEAD. ) ;
#116 = ORIENTED_EDGE ( 'NONE', *, *, #64, .F. ) ;
#117 = DIRECTION ( 'NONE',  ( -0.000000000000000000, -0.000000000000000000, -1.000000000000000000 ) ) ;
#118 = CARTESIAN_POINT ( 'NONE',  ( 11.00000000000000000, 1.347111479062088405E-15, 7.000000000000000000 ) ) ;
#119 = PERSON_AND_ORGANIZATION ( #160, #265 ) ;
#120 = ORIENTED_EDGE ( 'NONE', *, *, #162, .F. ) ;
#121 = EDGE_CURVE ( 'NONE', #221, #167, #247, .T. ) ;
#122 = PRODUCT ( '2063', '2063', '', ( #44 ) ) ;
#123 = DIRECTION ( 'NONE',  ( -1.000000000000000000, 0.000000000000000000, 0.000000000000000000 ) ) ;
#124 = AXIS2_PLACEMENT_3D ( 'NONE', #195, #166, #169 ) ;
#125 = CARTESIAN_POINT ( 'NONE',  ( 0.000000000000000000, 0.000000000000000000, 207.0000000000000284 ) ) ;
#126 = DIRECTION ( 'NONE',  ( -0.000000000000000000, -0.000000000000000000, -1.000000000000000000 ) ) ;
#127 = CARTESIAN_POINT ( 'NONE',  ( 0.000000000000000000, 0.000000000000000000, 0.000000000000000000 ) ) ;
#128 = DESIGN_CONTEXT ( 'detailed design', #194, 'design' ) ;
#129 = ORIENTED_EDGE ( 'NONE', *, *, #215, .F. ) ;
#130 = CARTESIAN_POINT ( 'NONE',  ( -7.200000000000001066, 8.817456953860944275E-16, 7.000000000000006217 ) ) ;
#131 = DATE_TIME_ROLE ( 'creation_date' ) ;
#132 = AXIS2_PLACEMENT_3D ( 'NONE', #127, #33, #72 ) ;
#133 = AXIS2_PLACEMENT_3D ( 'NONE', #28, #117, #304 ) ;
#134 = EDGE_CURVE ( 'NONE', #221, #271, #39, .T. ) ;
#135 = EDGE_CURVE ( 'NONE', #295, #51, #224, .T. ) ;
#136 = PRODUCT_DEFINITION_FORMATION_WITH_SPECIFIED_SOURCE ( 'LIBOVOLNÝ', '', #122, .NOT_KNOWN. ) ;
#137 = AXIS2_PLACEMENT_3D ( 'NONE', #231, #126, #227 ) ;
#138 = AXIS2_PLACEMENT_3D ( 'NONE', #55, #212, #123 ) ;
#139 = ORIENTED_EDGE ( 'NONE', *, *, #121, .T. ) ;
#140 = CIRCLE ( 'NONE', #21, 0.1999999999999996503 ) ;
#141 = ORIENTED_EDGE ( 'NONE', *, *, #163, .T. ) ;
#142 = DIRECTION ( 'NONE',  ( 1.000000000000000000, 0.000000000000000000, 0.000000000000000000 ) ) ;
#143 = APPLICATION_PROTOCOL_DEFINITION ( 'international standard', 'config_control_design', 1994, #3 ) ;
#144 = VERTEX_POINT ( 'NONE', #276 ) ;
#145 = CARTESIAN_POINT ( 'NONE',  ( 11.00000000000000000, 1.347111479062088405E-15, 7.000000000000000000 ) ) ;
#146 = PERSON_AND_ORGANIZATION_ROLE ( 'creator' ) ;
#147 = ORIENTED_EDGE ( 'NONE', *, *, #109, .T. ) ;
#148 = CARTESIAN_POINT ( 'NONE',  ( 0.000000000000000000, 0.000000000000000000, 7.200000000000011724 ) ) ;
#149 = CARTESIAN_POINT ( 'NONE',  ( 0.000000000000000000, 0.000000000000000000, 7.000000000000000000 ) ) ;
#150 = PERSON_AND_ORGANIZATION ( #160, #265 ) ;
#151 = FACE_OUTER_BOUND ( 'NONE', #99, .T. ) ;
#152 = DIRECTION ( 'NONE',  ( 1.000000000000000000, 0.000000000000000000, 0.000000000000000000 ) ) ;
#153 = DATE_TIME_ROLE ( 'classification_date' ) ;
#154 = AXIS2_PLACEMENT_3D ( 'NONE', #125, #232, #18 ) ;
#155 = EDGE_LOOP ( 'NONE', ( #81, #179 ) ) ;
#156 =( NAMED_UNIT ( * ) PLANE_ANGLE_UNIT ( ) SI_UNIT ( $, .RADIAN. ) );
#157 = EDGE_CURVE ( 'NONE', #292, #51, #236, .T. ) ;
#158 = DATE_AND_TIME ( #294, #222 ) ;
#159 = CC_DESIGN_DATE_AND_TIME_ASSIGNMENT ( #14, #153, ( #216 ) ) ;
#160 = PERSON ( 'NEURÈENÝ', 'NEURÈENÝ', 'NEURÈENÝ', ('NEURÈENÝ'), ('NEURÈENÝ'), ('NEURÈENÝ') ) ;
#161 = AXIS2_PLACEMENT_3D ( 'NONE', #38, #197, #70 ) ;
#162 = EDGE_CURVE ( 'NONE', #292, #144, #5, .T. ) ;
#163 = EDGE_CURVE ( 'NONE', #271, #185, #97, .T. ) ;
#164 = ORIENTED_EDGE ( 'NONE', *, *, #266, .F. ) ;
#165 = VECTOR ( 'NONE', #113, 1000.000000000000000 ) ;
#166 = DIRECTION ( 'NONE',  ( -0.000000000000000000, -0.000000000000000000, -1.000000000000000000 ) ) ;
#167 = VERTEX_POINT ( 'NONE', #43 ) ;
#168 = ORIENTED_EDGE ( 'NONE', *, *, #135, .F. ) ;
#169 = DIRECTION ( 'NONE',  ( -1.000000000000000000, 0.000000000000000000, 0.000000000000000000 ) ) ;
#170 =( LENGTH_UNIT ( ) NAMED_UNIT ( * ) SI_UNIT ( .MILLI., .METRE. ) );
#171 = APPROVAL_ROLE ( '' ) ;
#172 = ORIENTED_EDGE ( 'NONE', *, *, #219, .F. ) ;
#173 = DIRECTION ( 'NONE',  ( -0.000000000000000000, -0.000000000000000000, -1.000000000000000000 ) ) ;
#174 = CARTESIAN_POINT ( 'NONE',  ( 0.000000000000000000, 0.000000000000000000, 207.0000000000000284 ) ) ;
#175 = PERSON_AND_ORGANIZATION ( #160, #265 ) ;
#176 = APPROVAL ( #10, 'NEURÈENÝ' ) ;
#177 = PRODUCT_DEFINITION_SHAPE ( 'NONE', 'NONE',  #192 ) ;
#178 = AXIS2_PLACEMENT_3D ( 'NONE', #149, #56, #71 ) ;
#179 = ORIENTED_EDGE ( 'NONE', *, *, #15, .T. ) ;
#180 = CARTESIAN_POINT ( 'NONE',  ( -11.00000000000000000, 0.000000000000000000, 7.000000000000000000 ) ) ;
#181 = CARTESIAN_POINT ( 'NONE',  ( -11.00000000000000000, 0.000000000000000000, 7.000000000000000000 ) ) ;
#182 = CALENDAR_DATE ( 2022, 7, 7 ) ;
#183 = EDGE_CURVE ( 'NONE', #51, #292, #106, .T. ) ;
#184 = UNCERTAINTY_MEASURE_WITH_UNIT (LENGTH_MEASURE( 1.000000000000000082E-05 ), #170, 'distance_accuracy_value', 'NONE');
#185 = VERTEX_POINT ( 'NONE', #251 ) ;
#186 = DIRECTION ( 'NONE',  ( 1.000000000000000000, 0.000000000000000000, 0.000000000000000000 ) ) ;
#187 = FACE_OUTER_BOUND ( 'NONE', #207, .T. ) ;
#188 = PERSON_AND_ORGANIZATION_ROLE ( 'creator' ) ;
#189 = APPROVAL_PERSON_ORGANIZATION ( #98, #65, #36 ) ;
#190 = CIRCLE ( 'NONE', #1, 7.000000000000000888 ) ;
#191 = CC_DESIGN_DATE_AND_TIME_ASSIGNMENT ( #93, #131, ( #192 ) ) ;
#192 = PRODUCT_DEFINITION ( 'NEZNÁMÝ', '', #136, #128 ) ;
#193 = CIRCLE ( 'NONE', #110, 11.00000000000000000 ) ;
#194 = APPLICATION_CONTEXT ( 'configuration controlled 3d designs of mechanical parts and assemblies' ) ;
#195 = CARTESIAN_POINT ( 'NONE',  ( 0.000000000000000000, 0.000000000000000000, 7.000000000000000000 ) ) ;
#196 = ORIENTED_EDGE ( 'NONE', *, *, #134, .F. ) ;
#197 = DIRECTION ( 'NONE',  ( 0.000000000000000000, 0.000000000000000000, 1.000000000000000000 ) ) ;
#198 = CARTESIAN_POINT ( 'NONE',  ( 0.000000000000000000, 0.000000000000000000, 207.0000000000000284 ) ) ;
#199 = COORDINATED_UNIVERSAL_TIME_OFFSET ( 1, 0, .AHEAD. ) ;
#200 = AXIS2_PLACEMENT_3D ( 'NONE', #234, #237, #101 ) ;
#201 = APPROVAL ( #102, 'NEURÈENÝ' ) ;
#202 = DIRECTION ( 'NONE',  ( 0.000000000000000000, 0.000000000000000000, 1.000000000000000000 ) ) ;
#203 = CARTESIAN_POINT ( 'NONE',  ( 7.000000000000000888, 8.572527594031474176E-16, 207.0000000000000284 ) ) ;
#204 = DIRECTION ( 'NONE',  ( -1.000000000000000000, 0.000000000000000000, 0.000000000000000000 ) ) ;
#205 = APPROVAL_STATUS ( 'not_yet_approved' ) ;
#206 = CIRCLE ( 'NONE', #137, 7.200000000000001066 ) ;
#207 = EDGE_LOOP ( 'NONE', ( #260, #172, #42, #54 ) ) ;
#208 = DIRECTION ( 'NONE',  ( 0.000000000000000000, 0.000000000000000000, 1.000000000000000000 ) ) ;
#209 =( NAMED_UNIT ( * ) SI_UNIT ( $, .STERADIAN. ) SOLID_ANGLE_UNIT ( ) );
#210 = PERSON_AND_ORGANIZATION_ROLE ( 'design_supplier' ) ;
#211 = CARTESIAN_POINT ( 'NONE',  ( 0.000000000000000000, 0.000000000000000000, 7.000000000000000000 ) ) ;
#212 = DIRECTION ( 'NONE',  ( -0.000000000000000000, -0.000000000000000000, -1.000000000000000000 ) ) ;
#213 = DIRECTION ( 'NONE',  ( -0.000000000000000000, -0.000000000000000000, -1.000000000000000000 ) ) ;
#214 = COORDINATED_UNIVERSAL_TIME_OFFSET ( 1, 0, .AHEAD. ) ;
#215 = EDGE_CURVE ( 'NONE', #51, #275, #140, .T. ) ;
#216 = SECURITY_CLASSIFICATION ( '', '', #59 ) ;
#217 = ADVANCED_FACE ( 'NONE', ( #302, #17 ), #107, .T. ) ;
#218 = AXIS2_PLACEMENT_3D ( 'NONE', #48, #52, #269 ) ;
#219 = EDGE_CURVE ( 'NONE', #295, #249, #86, .T. ) ;
#220 = AXIS2_PLACEMENT_3D ( 'NONE', #174, #228, #305 ) ;
#221 = VERTEX_POINT ( 'NONE', #181 ) ;
#222 = LOCAL_TIME ( 11, 41, 6.000000000000000000, #199 ) ;
#223 = ORIENTED_EDGE ( 'NONE', *, *, #219, .T. ) ;
#224 = LINE ( 'NONE', #74, #307 ) ;
#225 = PERSON_AND_ORGANIZATION_ROLE ( 'design_owner' ) ;
#226 = EDGE_LOOP ( 'NONE', ( #47, #7, #73, #168 ) ) ;
#227 = DIRECTION ( 'NONE',  ( 1.000000000000000000, 0.000000000000000000, 0.000000000000000000 ) ) ;
#228 = DIRECTION ( 'NONE',  ( 0.000000000000000000, 0.000000000000000000, 1.000000000000000000 ) ) ;
#229 = PERSON_AND_ORGANIZATION_ROLE ( 'classification_officer' ) ;
#230 = ORIENTED_EDGE ( 'NONE', *, *, #85, .T. ) ;
#231 = CARTESIAN_POINT ( 'NONE',  ( 0.000000000000000000, 0.000000000000000000, 7.000000000000000000 ) ) ;
#232 = DIRECTION ( 'NONE',  ( -0.000000000000000000, -0.000000000000000000, -1.000000000000000000 ) ) ;
#233 = DIRECTION ( 'NONE',  ( 1.000000000000000000, 0.000000000000000000, 0.000000000000000000 ) ) ;
#234 = CARTESIAN_POINT ( 'NONE',  ( 0.000000000000000000, 0.000000000000000000, 0.000000000000000000 ) ) ;
#235 = DATE_AND_TIME ( #20, #60 ) ;
#236 = CIRCLE ( 'NONE', #62, 7.000000000000000888 ) ;
#237 = DIRECTION ( 'NONE',  ( 0.000000000000000000, 0.000000000000000000, 1.000000000000000000 ) ) ;
#238 = CC_DESIGN_APPROVAL ( #201, ( #192 ) ) ;
#239 = AXIS2_PLACEMENT_3D ( 'NONE', #198, #261, #204 ) ;
#240 = LOCAL_TIME ( 11, 41, 6.000000000000000000, #273 ) ;
#241 = AXIS2_PLACEMENT_3D ( 'NONE', #296, #68, #186 ) ;
#242 = VECTOR ( 'NONE', #213, 1000.000000000000000 ) ;
#243 = ORIENTED_EDGE ( 'NONE', *, *, #15, .F. ) ;
#244 = DIRECTION ( 'NONE',  ( -0.000000000000000000, -0.000000000000000000, -1.000000000000000000 ) ) ;
#245 = APPROVAL_ROLE ( '' ) ;
#246 = ORIENTED_EDGE ( 'NONE', *, *, #183, .F. ) ;
#247 = LINE ( 'NONE', #180, #165 ) ;
#248 = PERSON_AND_ORGANIZATION ( #160, #265 ) ;
#249 = VERTEX_POINT ( 'NONE', #83 ) ;
#250 = PLANE ( 'NONE',  #161 ) ;
#251 = CARTESIAN_POINT ( 'NONE',  ( 11.00000000000000000, 1.347111479062088405E-15, 0.000000000000000000 ) ) ;
#252 = COORDINATED_UNIVERSAL_TIME_OFFSET ( 1, 0, .AHEAD. ) ;
#253 = DIRECTION ( 'NONE',  ( 1.000000000000000000, 0.000000000000000000, 0.000000000000000000 ) ) ;
#254 = FACE_OUTER_BOUND ( 'NONE', #111, .T. ) ;
#255 = DIRECTION ( 'NONE',  ( 0.000000000000000000, 0.000000000000000000, 1.000000000000000000 ) ) ;
#256 = CALENDAR_DATE ( 2022, 7, 7 ) ;
#257 = CIRCLE ( 'NONE', #241, 11.00000000000000000 ) ;
#258 = APPROVAL_PERSON_ORGANIZATION ( #40, #176, #171 ) ;
#259 = PRODUCT_RELATED_PRODUCT_CATEGORY ( 'detail', '', ( #122 ) ) ;
#260 = ORIENTED_EDGE ( 'NONE', *, *, #80, .F. ) ;
#261 = DIRECTION ( 'NONE',  ( -0.000000000000000000, -0.000000000000000000, -1.000000000000000000 ) ) ;
#262 = APPLICATION_PROTOCOL_DEFINITION ( 'international standard', 'config_control_design', 1994, #194 ) ;
#263 = CC_DESIGN_PERSON_AND_ORGANIZATION_ASSIGNMENT ( #150, #229, ( #216 ) ) ;
#264 = AXIS2_PLACEMENT_3D ( 'NONE', #277, #297, #32 ) ;
#265 = ORGANIZATION ( 'NEURÈENÝ', 'NEURÈENÝ', '' ) ;
#266 = EDGE_CURVE ( 'NONE', #185, #167, #26, .T. ) ;
#267 = CC_DESIGN_PERSON_AND_ORGANIZATION_ASSIGNMENT ( #50, #146, ( #136 ) ) ;
#268 = CLOSED_SHELL ( 'NONE', ( #67, #6, #103, #89, #217, #24, #306, #23, #2 ) ) ;
#269 = DIRECTION ( 'NONE',  ( 1.000000000000000000, 0.000000000000000000, 0.000000000000000000 ) ) ;
#270 = ORIENTED_EDGE ( 'NONE', *, *, #266, .T. ) ;
#271 = VERTEX_POINT ( 'NONE', #145 ) ;
#272 = CARTESIAN_POINT ( 'NONE',  ( 0.000000000000000000, 0.000000000000000000, 207.0000000000000284 ) ) ;
#273 = COORDINATED_UNIVERSAL_TIME_OFFSET ( 1, 0, .AHEAD. ) ;
#274 = AXIS2_PLACEMENT_3D ( 'NONE', #16, #301, #35 ) ;
#275 = VERTEX_POINT ( 'NONE', #130 ) ;
#276 = CARTESIAN_POINT ( 'NONE',  ( 7.200000000000001066, 0.000000000000000000, 7.000000000000006217 ) ) ;
#277 = CARTESIAN_POINT ( 'NONE',  ( 7.200000000000001066, 0.000000000000000000, 7.200000000000011724 ) ) ;
#278 = ORIENTED_EDGE ( 'NONE', *, *, #61, .F. ) ;
#279 = DIRECTION ( 'NONE',  ( 1.000000000000000000, 0.000000000000000000, 0.000000000000000000 ) ) ;
#280 = CALENDAR_DATE ( 2022, 7, 7 ) ;
#281 = CARTESIAN_POINT ( 'NONE',  ( 0.000000000000000000, 0.000000000000000000, 7.200000000000011724 ) ) ;
#282 = CYLINDRICAL_SURFACE ( 'NONE', #239, 7.000000000000000888 ) ;
#283 = LOCAL_TIME ( 11, 41, 6.000000000000000000, #252 ) ;
#284 = CIRCLE ( 'NONE', #133, 7.200000000000001066 ) ;
#285 = CC_DESIGN_PERSON_AND_ORGANIZATION_ASSIGNMENT ( #175, #225, ( #122 ) ) ;
#286 = LOCAL_TIME ( 11, 41, 6.000000000000000000, #115 ) ;
#287 =( GEOMETRIC_REPRESENTATION_CONTEXT ( 3 ) GLOBAL_UNCERTAINTY_ASSIGNED_CONTEXT ( ( #184 ) ) GLOBAL_UNIT_ASSIGNED_CONTEXT ( ( #170, #156, #209 ) ) REPRESENTATION_CONTEXT ( 'NONE', 'WORKASPACE' ) );
#288 = AXIS2_PLACEMENT_3D ( 'NONE', #49, #255, #92 ) ;
#289 = CC_DESIGN_PERSON_AND_ORGANIZATION_ASSIGNMENT ( #119, #210, ( #136 ) ) ;
#290 = CARTESIAN_POINT ( 'NONE',  ( 0.000000000000000000, 0.000000000000000000, 7.200000000000011724 ) ) ;
#291 = ORIENTED_EDGE ( 'NONE', *, *, #121, .F. ) ;
#292 = VERTEX_POINT ( 'NONE', #114 ) ;
#293 = CYLINDRICAL_SURFACE ( 'NONE', #138, 11.00000000000000000 ) ;
#294 = CALENDAR_DATE ( 2022, 7, 7 ) ;
#295 = VERTEX_POINT ( 'NONE', #53 ) ;
#296 = CARTESIAN_POINT ( 'NONE',  ( 0.000000000000000000, 0.000000000000000000, 0.000000000000000000 ) ) ;
#297 = DIRECTION ( 'NONE',  ( 0.000000000000000000, -1.000000000000000000, 0.000000000000000000 ) ) ;
#298 = APPROVAL_DATE_TIME ( #235, #65 ) ;
#299 = CC_DESIGN_APPROVAL ( #176, ( #136 ) ) ;
#300 = ORIENTED_EDGE ( 'NONE', *, *, #157, .F. ) ;
#301 = DIRECTION ( 'NONE',  ( 0.000000000000000000, 0.000000000000000000, 1.000000000000000000 ) ) ;
#302 = FACE_BOUND ( 'NONE', #90, .T. ) ;
#303 = ORIENTED_EDGE ( 'NONE', *, *, #163, .F. ) ;
#304 = DIRECTION ( 'NONE',  ( 1.000000000000000000, 0.000000000000000000, 0.000000000000000000 ) ) ;
#305 = DIRECTION ( 'NONE',  ( 1.000000000000000000, 0.000000000000000000, 0.000000000000000000 ) ) ;
#306 = ADVANCED_FACE ( 'NONE', ( #187 ), #282, .T. ) ;
#307 = VECTOR ( 'NONE', #173, 1000.000000000000000 ) ;
ENDSEC;
END-ISO-10303-21;
