ISO-10303-21;
HEADER;
FILE_DESCRIPTION (( 'STEP AP203' ),
    '1' );
FILE_NAME ('6d7a.STEP',
    '2022-07-07T10:08:41',
    ( '' ),
    ( '' ),
    'SwSTEP 2.0',
    'SolidWorks 2019',
    '' );
FILE_SCHEMA (( 'CONFIG_CONTROL_DESIGN' ));
ENDSEC;

DATA;
#1 = CARTESIAN_POINT ( 'NONE',  ( 3.250000000000000444, 3.980102097228898231E-16, 505.0000000000000000 ) ) ;
#2 = AXIS2_PLACEMENT_3D ( 'NONE', #165, #138, #303 ) ;
#3 = CC_DESIGN_SECURITY_CLASSIFICATION ( #44, ( #204 ) ) ;
#4 = MANIFOLD_SOLID_BREP ( 'Zaoblit1', #289 ) ;
#5 = EDGE_CURVE ( 'NONE', #288, #87, #198, .T. ) ;
#6 = ORIENTED_EDGE ( 'NONE', *, *, #150, .F. ) ;
#7 = PRODUCT_DEFINITION_SHAPE ( 'NONE', 'NONE',  #100 ) ;
#8 = APPROVAL_STATUS ( 'not_yet_approved' ) ;
#9 = ORIENTED_EDGE ( 'NONE', *, *, #302, .T. ) ;
#10 = PERSON_AND_ORGANIZATION_ROLE ( 'creator' ) ;
#11 = ORIENTED_EDGE ( 'NONE', *, *, #150, .T. ) ;
#12 = PERSON_AND_ORGANIZATION ( #82, #285 ) ;
#13 = CIRCLE ( 'NONE', #240, 6.000000000000000888 ) ;
#14 = CARTESIAN_POINT ( 'NONE',  ( 0.000000000000000000, 0.000000000000000000, 5.199999999999982414 ) ) ;
#15 = COORDINATED_UNIVERSAL_TIME_OFFSET ( 1, 0, .AHEAD. ) ;
#16 = CARTESIAN_POINT ( 'NONE',  ( 0.000000000000000000, 0.000000000000000000, 5.000000000000000000 ) ) ;
#17 = LINE ( 'NONE', #119, #113 ) ;
#18 = PLANE ( 'NONE',  #63 ) ;
#19 = DIRECTION ( 'NONE',  ( 0.000000000000000000, 0.000000000000000000, 1.000000000000000000 ) ) ;
#20 = ADVANCED_FACE ( 'NONE', ( #48 ), #143, .T. ) ;
#21 = CARTESIAN_POINT ( 'NONE',  ( 0.000000000000000000, 0.000000000000000000, 5.199999999999982414 ) ) ;
#22 = AXIS2_PLACEMENT_3D ( 'NONE', #277, #272, #183 ) ;
#23 = AXIS2_PLACEMENT_3D ( 'NONE', #56, #27, #104 ) ;
#24 = CC_DESIGN_PERSON_AND_ORGANIZATION_ASSIGNMENT ( #129, #291, ( #44 ) ) ;
#25 = ADVANCED_BREP_SHAPE_REPRESENTATION ( '6d7a', ( #4, #174 ), #245 ) ;
#26 = FACE_OUTER_BOUND ( 'NONE', #178, .T. ) ;
#27 = DIRECTION ( 'NONE',  ( 0.000000000000000000, 0.000000000000000000, 1.000000000000000000 ) ) ;
#28 = ADVANCED_FACE ( 'NONE', ( #135 ), #298, .T. ) ;
#29 = CIRCLE ( 'NONE', #234, 3.250000000000000444 ) ;
#30 = LOCAL_TIME ( 12, 8, 41.00000000000000000, #117 ) ;
#31 = CC_DESIGN_PERSON_AND_ORGANIZATION_ASSIGNMENT ( #85, #250, ( #204 ) ) ;
#32 = DATE_TIME_ROLE ( 'classification_date' ) ;
#33 = ORIENTED_EDGE ( 'NONE', *, *, #220, .F. ) ;
#34 = ORIENTED_EDGE ( 'NONE', *, *, #147, .F. ) ;
#35 = VERTEX_POINT ( 'NONE', #182 ) ;
#36 = CIRCLE ( 'NONE', #187, 6.000000000000000888 ) ;
#37 = AXIS2_PLACEMENT_3D ( 'NONE', #284, #52, #216 ) ;
#38 = VERTEX_POINT ( 'NONE', #233 ) ;
#39 = CALENDAR_DATE ( 2022, 7, 7 ) ;
#40 = ORIENTED_EDGE ( 'NONE', *, *, #180, .F. ) ;
#41 = DIRECTION ( 'NONE',  ( 1.000000000000000000, 0.000000000000000000, 0.000000000000000000 ) ) ;
#42 = CIRCLE ( 'NONE', #2, 3.250000000000000444 ) ;
#43 = AXIS2_PLACEMENT_3D ( 'NONE', #148, #125, #239 ) ;
#44 = SECURITY_CLASSIFICATION ( '', '', #155 ) ;
#45 = DIRECTION ( 'NONE',  ( -0.000000000000000000, -0.000000000000000000, -1.000000000000000000 ) ) ;
#46 = DATE_AND_TIME ( #267, #101 ) ;
#47 = CARTESIAN_POINT ( 'NONE',  ( 0.000000000000000000, 0.000000000000000000, 5.000000000000000000 ) ) ;
#48 = FACE_OUTER_BOUND ( 'NONE', #131, .T. ) ;
#49 = EDGE_CURVE ( 'NONE', #222, #38, #42, .T. ) ;
#50 = DIRECTION ( 'NONE',  ( 1.000000000000000000, 0.000000000000000000, 0.000000000000000000 ) ) ;
#51 = DIRECTION ( 'NONE',  ( 0.000000000000000000, 0.000000000000000000, 1.000000000000000000 ) ) ;
#52 = DIRECTION ( 'NONE',  ( 0.000000000000000000, 0.000000000000000000, 1.000000000000000000 ) ) ;
#53 = APPLICATION_PROTOCOL_DEFINITION ( 'international standard', 'config_control_design', 1994, #253 ) ;
#54 = CC_DESIGN_APPROVAL ( #98, ( #44 ) ) ;
#55 =( NAMED_UNIT ( * ) SI_UNIT ( $, .STERADIAN. ) SOLID_ANGLE_UNIT ( ) );
#56 = CARTESIAN_POINT ( 'NONE',  ( 0.000000000000000000, 0.000000000000000000, 0.000000000000000000 ) ) ;
#57 = COORDINATED_UNIVERSAL_TIME_OFFSET ( 1, 0, .AHEAD. ) ;
#58 = AXIS2_PLACEMENT_3D ( 'NONE', #305, #99, #238 ) ;
#59 = VERTEX_POINT ( 'NONE', #163 ) ;
#60 = PRODUCT_RELATED_PRODUCT_CATEGORY ( 'detail', '', ( #159 ) ) ;
#61 = ORIENTED_EDGE ( 'NONE', *, *, #70, .T. ) ;
#62 = ORIENTED_EDGE ( 'NONE', *, *, #105, .T. ) ;
#63 = AXIS2_PLACEMENT_3D ( 'NONE', #16, #185, #186 ) ;
#64 = APPROVAL_ROLE ( '' ) ;
#65 = DATE_AND_TIME ( #89, #30 ) ;
#66 = EDGE_LOOP ( 'NONE', ( #203, #132 ) ) ;
#67 = APPLICATION_PROTOCOL_DEFINITION ( 'international standard', 'config_control_design', 1994, #152 ) ;
#68 = CARTESIAN_POINT ( 'NONE',  ( 0.000000000000000000, 0.000000000000000000, 505.0000000000000000 ) ) ;
#69 = APPROVAL_STATUS ( 'not_yet_approved' ) ;
#70 = EDGE_CURVE ( 'NONE', #288, #107, #36, .T. ) ;
#71 = DIRECTION ( 'NONE',  ( -1.000000000000000000, 0.000000000000000000, 0.000000000000000000 ) ) ;
#72 = DIRECTION ( 'NONE',  ( 0.000000000000000000, -1.000000000000000000, 0.000000000000000000 ) ) ;
#73 = LINE ( 'NONE', #79, #307 ) ;
#74 = AXIS2_PLACEMENT_3D ( 'NONE', #140, #115, #232 ) ;
#75 = LOCAL_TIME ( 12, 8, 41.00000000000000000, #299 ) ;
#76 = CARTESIAN_POINT ( 'NONE',  ( -6.000000000000000888, 0.000000000000000000, 0.000000000000000000 ) ) ;
#77 = CARTESIAN_POINT ( 'NONE',  ( 0.000000000000000000, 0.000000000000000000, 505.0000000000000000 ) ) ;
#78 = DIRECTION ( 'NONE',  ( 0.000000000000000000, 0.000000000000000000, 1.000000000000000000 ) ) ;
#79 = CARTESIAN_POINT ( 'NONE',  ( -6.000000000000000888, 0.000000000000000000, 5.000000000000000000 ) ) ;
#80 = DIRECTION ( 'NONE',  ( 1.000000000000000000, 0.000000000000000000, 0.000000000000000000 ) ) ;
#81 = ORIENTED_EDGE ( 'NONE', *, *, #5, .T. ) ;
#82 = PERSON ( 'NEURÈENÝ', 'NEURÈENÝ', 'NEURÈENÝ', ('NEURÈENÝ'), ('NEURÈENÝ'), ('NEURÈENÝ') ) ;
#83 = EDGE_LOOP ( 'NONE', ( #265, #81, #11, #40 ) ) ;
#84 = CARTESIAN_POINT ( 'NONE',  ( 6.000000000000000888, 7.347880794884120722E-16, 5.000000000000000000 ) ) ;
#85 = PERSON_AND_ORGANIZATION ( #82, #285 ) ;
#86 = ADVANCED_FACE ( 'NONE', ( #255 ), #121, .T. ) ;
#87 = VERTEX_POINT ( 'NONE', #251 ) ;
#88 = CIRCLE ( 'NONE', #230, 3.450000000000000178 ) ;
#89 = CALENDAR_DATE ( 2022, 7, 7 ) ;
#90 = ORIENTED_EDGE ( 'NONE', *, *, #297, .T. ) ;
#91 = CARTESIAN_POINT ( 'NONE',  ( 0.000000000000000000, 0.000000000000000000, 5.000000000000000000 ) ) ;
#92 = DIRECTION ( 'NONE',  ( 1.000000000000000000, 0.000000000000000000, 0.000000000000000000 ) ) ;
#93 = CARTESIAN_POINT ( 'NONE',  ( 0.000000000000000000, 0.000000000000000000, 5.000000000000000000 ) ) ;
#94 = CARTESIAN_POINT ( 'NONE',  ( -3.250000000000000444, 0.000000000000000000, 5.199999999999982414 ) ) ;
#95 = CARTESIAN_POINT ( 'NONE',  ( 0.000000000000000000, 0.000000000000000000, 5.199999999999982414 ) ) ;
#96 = CIRCLE ( 'NONE', #108, 3.250000000000000444 ) ;
#97 = CARTESIAN_POINT ( 'NONE',  ( 0.000000000000000000, 0.000000000000000000, 5.000000000000000000 ) ) ;
#98 = APPROVAL ( #69, 'NEURÈENÝ' ) ;
#99 = DIRECTION ( 'NONE',  ( 0.000000000000000000, 0.000000000000000000, 1.000000000000000000 ) ) ;
#100 = PRODUCT_DEFINITION ( 'NEZNÁMÝ', '', #204, #120 ) ;
#101 = LOCAL_TIME ( 12, 8, 41.00000000000000000, #57 ) ;
#102 = DIRECTION ( 'NONE',  ( -0.000000000000000000, -0.000000000000000000, -1.000000000000000000 ) ) ;
#103 = CIRCLE ( 'NONE', #268, 0.1999999999999996503 ) ;
#104 = DIRECTION ( 'NONE',  ( 1.000000000000000000, 0.000000000000000000, 0.000000000000000000 ) ) ;
#105 = EDGE_CURVE ( 'NONE', #151, #35, #191, .T. ) ;
#106 = ORIENTED_EDGE ( 'NONE', *, *, #166, .T. ) ;
#107 = VERTEX_POINT ( 'NONE', #279 ) ;
#108 = AXIS2_PLACEMENT_3D ( 'NONE', #21, #145, #237 ) ;
#109 = ORIENTED_EDGE ( 'NONE', *, *, #180, .T. ) ;
#110 = ORIENTED_EDGE ( 'NONE', *, *, #5, .F. ) ;
#111 = ADVANCED_FACE ( 'NONE', ( #256, #164 ), #18, .T. ) ;
#112 = VERTEX_POINT ( 'NONE', #276 ) ;
#113 = VECTOR ( 'NONE', #209, 1000.000000000000000 ) ;
#114 = DATE_AND_TIME ( #39, #75 ) ;
#115 = DIRECTION ( 'NONE',  ( -0.000000000000000000, -0.000000000000000000, -1.000000000000000000 ) ) ;
#116 = EDGE_CURVE ( 'NONE', #38, #222, #29, .T. ) ;
#117 = COORDINATED_UNIVERSAL_TIME_OFFSET ( 1, 0, .AHEAD. ) ;
#118 = DIRECTION ( 'NONE',  ( 0.000000000000000000, 0.000000000000000000, 1.000000000000000000 ) ) ;
#119 = CARTESIAN_POINT ( 'NONE',  ( 3.250000000000000444, 3.980102097228898231E-16, 505.0000000000000000 ) ) ;
#120 = DESIGN_CONTEXT ( 'detailed design', #152, 'design' ) ;
#121 = CYLINDRICAL_SURFACE ( 'NONE', #210, 6.000000000000000888 ) ;
#122 =( LENGTH_UNIT ( ) NAMED_UNIT ( * ) SI_UNIT ( .MILLI., .METRE. ) );
#123 = APPROVAL_PERSON_ORGANIZATION ( #263, #98, #64 ) ;
#124 = DIRECTION ( 'NONE',  ( 1.000000000000000000, 0.000000000000000000, -0.000000000000000000 ) ) ;
#125 = DIRECTION ( 'NONE',  ( -0.000000000000000000, -0.000000000000000000, -1.000000000000000000 ) ) ;
#126 = DIRECTION ( 'NONE',  ( 0.000000000000000000, 0.000000000000000000, 1.000000000000000000 ) ) ;
#127 = DIRECTION ( 'NONE',  ( -0.000000000000000000, -0.000000000000000000, -1.000000000000000000 ) ) ;
#128 = APPROVAL_PERSON_ORGANIZATION ( #201, #249, #269 ) ;
#129 = PERSON_AND_ORGANIZATION ( #82, #285 ) ;
#130 = CC_DESIGN_PERSON_AND_ORGANIZATION_ASSIGNMENT ( #12, #10, ( #100 ) ) ;
#131 = EDGE_LOOP ( 'NONE', ( #243, #106, #9, #244 ) ) ;
#132 = ORIENTED_EDGE ( 'NONE', *, *, #147, .T. ) ;
#133 = ORIENTED_EDGE ( 'NONE', *, *, #220, .T. ) ;
#134 = EDGE_LOOP ( 'NONE', ( #90, #61 ) ) ;
#135 = FACE_OUTER_BOUND ( 'NONE', #175, .T. ) ;
#136 = AXIS2_PLACEMENT_3D ( 'NONE', #95, #258, #50 ) ;
#137 = DATE_TIME_ROLE ( 'creation_date' ) ;
#138 = DIRECTION ( 'NONE',  ( 0.000000000000000000, 0.000000000000000000, 1.000000000000000000 ) ) ;
#139 = DIRECTION ( 'NONE',  ( -0.000000000000000000, -0.000000000000000000, -1.000000000000000000 ) ) ;
#140 = CARTESIAN_POINT ( 'NONE',  ( 0.000000000000000000, 0.000000000000000000, 5.000000000000000000 ) ) ;
#141 = AXIS2_PLACEMENT_3D ( 'NONE', #14, #275, #92 ) ;
#142 = EDGE_CURVE ( 'NONE', #59, #112, #103, .T. ) ;
#143 = CYLINDRICAL_SURFACE ( 'NONE', #184, 3.250000000000000444 ) ;
#144 = ADVANCED_FACE ( 'NONE', ( #300 ), #223, .F. ) ;
#145 = DIRECTION ( 'NONE',  ( 0.000000000000000000, 0.000000000000000000, 1.000000000000000000 ) ) ;
#146 =( NAMED_UNIT ( * ) PLANE_ANGLE_UNIT ( ) SI_UNIT ( $, .RADIAN. ) );
#147 = EDGE_CURVE ( 'NONE', #35, #112, #202, .T. ) ;
#148 = CARTESIAN_POINT ( 'NONE',  ( 0.000000000000000000, 0.000000000000000000, 505.0000000000000000 ) ) ;
#149 = SHAPE_DEFINITION_REPRESENTATION ( #7, #25 ) ;
#150 = EDGE_CURVE ( 'NONE', #87, #248, #13, .T. ) ;
#151 = VERTEX_POINT ( 'NONE', #94 ) ;
#152 = APPLICATION_CONTEXT ( 'configuration controlled 3d designs of mechanical parts and assemblies' ) ;
#153 = ORIENTED_EDGE ( 'NONE', *, *, #116, .F. ) ;
#154 = ORIENTED_EDGE ( 'NONE', *, *, #142, .F. ) ;
#155 = SECURITY_CLASSIFICATION_LEVEL ( 'unclassified' ) ;
#156 = EDGE_LOOP ( 'NONE', ( #33, #6 ) ) ;
#157 = PERSON_AND_ORGANIZATION_ROLE ( 'creator' ) ;
#158 = DIRECTION ( 'NONE',  ( -1.000000000000000000, 0.000000000000000000, 0.000000000000000000 ) ) ;
#159 = PRODUCT ( '6d7a', '6d7a', '', ( #286 ) ) ;
#160 = APPROVAL_DATE_TIME ( #287, #249 ) ;
#161 = DIRECTION ( 'NONE',  ( -0.000000000000000000, -0.000000000000000000, -1.000000000000000000 ) ) ;
#162 = PERSON_AND_ORGANIZATION ( #82, #285 ) ;
#163 = CARTESIAN_POINT ( 'NONE',  ( 3.250000000000000444, 3.980102097228898231E-16, 5.199999999999982414 ) ) ;
#164 = FACE_OUTER_BOUND ( 'NONE', #134, .T. ) ;
#165 = CARTESIAN_POINT ( 'NONE',  ( 0.000000000000000000, 0.000000000000000000, 505.0000000000000000 ) ) ;
#166 = EDGE_CURVE ( 'NONE', #222, #59, #17, .T. ) ;
#167 = CC_DESIGN_APPROVAL ( #249, ( #100 ) ) ;
#168 = PLANE ( 'NONE',  #58 ) ;
#169 = FACE_OUTER_BOUND ( 'NONE', #266, .T. ) ;
#170 = PLANE ( 'NONE',  #254 ) ;
#171 = PERSON_AND_ORGANIZATION ( #82, #285 ) ;
#172 = APPROVAL_DATE_TIME ( #114, #189 ) ;
#173 = VECTOR ( 'NONE', #213, 1000.000000000000000 ) ;
#174 = AXIS2_PLACEMENT_3D ( 'NONE', #283, #78, #80 ) ;
#175 = EDGE_LOOP ( 'NONE', ( #110, #246, #109, #133 ) ) ;
#176 = ADVANCED_FACE ( 'NONE', ( #304 ), #280, .F. ) ;
#177 = COORDINATED_UNIVERSAL_TIME_OFFSET ( 1, 0, .AHEAD. ) ;
#178 = EDGE_LOOP ( 'NONE', ( #197, #296 ) ) ;
#179 = ORIENTED_EDGE ( 'NONE', *, *, #142, .T. ) ;
#180 = EDGE_CURVE ( 'NONE', #107, #248, #73, .T. ) ;
#181 = CALENDAR_DATE ( 2022, 7, 7 ) ;
#182 = CARTESIAN_POINT ( 'NONE',  ( -3.450000000000000178, 4.225031457058368824E-16, 4.999999999999991118 ) ) ;
#183 = DIRECTION ( 'NONE',  ( -1.000000000000000000, 1.224646799147350742E-16, 0.000000000000000000 ) ) ;
#184 = AXIS2_PLACEMENT_3D ( 'NONE', #211, #236, #71 ) ;
#185 = DIRECTION ( 'NONE',  ( 0.000000000000000000, 0.000000000000000000, 1.000000000000000000 ) ) ;
#186 = DIRECTION ( 'NONE',  ( 1.000000000000000000, 0.000000000000000000, -0.000000000000000000 ) ) ;
#187 = AXIS2_PLACEMENT_3D ( 'NONE', #93, #19, #206 ) ;
#188 = DIRECTION ( 'NONE',  ( 1.000000000000000000, 0.000000000000000000, 0.000000000000000000 ) ) ;
#189 = APPROVAL ( #247, 'NEURÈENÝ' ) ;
#190 = CARTESIAN_POINT ( 'NONE',  ( 6.000000000000000888, 7.347880794884120722E-16, 5.000000000000000000 ) ) ;
#191 = CIRCLE ( 'NONE', #22, 0.2000000000000000944 ) ;
#192 = CARTESIAN_POINT ( 'NONE',  ( 0.000000000000000000, 0.000000000000000000, 5.000000000000000000 ) ) ;
#193 = EDGE_CURVE ( 'NONE', #38, #151, #260, .T. ) ;
#194 = FACE_OUTER_BOUND ( 'NONE', #156, .T. ) ;
#195 = CC_DESIGN_PERSON_AND_ORGANIZATION_ASSIGNMENT ( #207, #157, ( #204 ) ) ;
#196 = ORIENTED_EDGE ( 'NONE', *, *, #278, .T. ) ;
#197 = ORIENTED_EDGE ( 'NONE', *, *, #116, .T. ) ;
#198 = LINE ( 'NONE', #84, #306 ) ;
#199 = APPROVAL_ROLE ( '' ) ;
#200 = ORIENTED_EDGE ( 'NONE', *, *, #105, .F. ) ;
#201 = PERSON_AND_ORGANIZATION ( #82, #285 ) ;
#202 = CIRCLE ( 'NONE', #74, 3.450000000000000178 ) ;
#203 = ORIENTED_EDGE ( 'NONE', *, *, #252, .T. ) ;
#204 = PRODUCT_DEFINITION_FORMATION_WITH_SPECIFIED_SOURCE ( 'LIBOVOLNÝ', '', #159, .NOT_KNOWN. ) ;
#205 = APPROVAL_DATE_TIME ( #46, #98 ) ;
#206 = DIRECTION ( 'NONE',  ( 1.000000000000000000, 0.000000000000000000, 0.000000000000000000 ) ) ;
#207 = PERSON_AND_ORGANIZATION ( #82, #285 ) ;
#208 = CARTESIAN_POINT ( 'NONE',  ( 3.450000000000000178, 0.000000000000000000, 5.199999999999982414 ) ) ;
#209 = DIRECTION ( 'NONE',  ( -0.000000000000000000, -0.000000000000000000, -1.000000000000000000 ) ) ;
#210 = AXIS2_PLACEMENT_3D ( 'NONE', #91, #45, #231 ) ;
#211 = CARTESIAN_POINT ( 'NONE',  ( 0.000000000000000000, 0.000000000000000000, 505.0000000000000000 ) ) ;
#212 = DIRECTION ( 'NONE',  ( 0.000000000000000000, 0.000000000000000000, 1.000000000000000000 ) ) ;
#213 = DIRECTION ( 'NONE',  ( -0.000000000000000000, -0.000000000000000000, -1.000000000000000000 ) ) ;
#214 = APPROVAL_PERSON_ORGANIZATION ( #162, #189, #199 ) ;
#215 = LOCAL_TIME ( 12, 8, 41.00000000000000000, #177 ) ;
#216 = DIRECTION ( 'NONE',  ( 1.000000000000000000, 0.000000000000000000, 0.000000000000000000 ) ) ;
#217 = CARTESIAN_POINT ( 'NONE',  ( -3.250000000000000444, 0.000000000000000000, 505.0000000000000000 ) ) ;
#218 = CIRCLE ( 'NONE', #23, 6.000000000000000888 ) ;
#219 = ADVANCED_FACE ( 'NONE', ( #194 ), #168, .F. ) ;
#220 = EDGE_CURVE ( 'NONE', #248, #87, #218, .T. ) ;
#221 = ORIENTED_EDGE ( 'NONE', *, *, #193, .T. ) ;
#222 = VERTEX_POINT ( 'NONE', #1 ) ;
#223 = TOROIDAL_SURFACE ( 'NONE', #141, 3.450000000000000178, 0.2000000000000000111 ) ;
#224 = AXIS2_PLACEMENT_3D ( 'NONE', #192, #126, #282 ) ;
#225 = EDGE_LOOP ( 'NONE', ( #290, #62, #270, #154 ) ) ;
#226 = EDGE_LOOP ( 'NONE', ( #200, #293, #179, #34 ) ) ;
#227 = ADVANCED_FACE ( 'NONE', ( #26 ), #170, .T. ) ;
#228 = ORIENTED_EDGE ( 'NONE', *, *, #166, .F. ) ;
#229 = DIRECTION ( 'NONE',  ( 0.000000000000000000, 0.000000000000000000, -1.000000000000000000 ) ) ;
#230 = AXIS2_PLACEMENT_3D ( 'NONE', #97, #127, #188 ) ;
#231 = DIRECTION ( 'NONE',  ( -1.000000000000000000, 0.000000000000000000, 0.000000000000000000 ) ) ;
#232 = DIRECTION ( 'NONE',  ( 1.000000000000000000, 0.000000000000000000, 0.000000000000000000 ) ) ;
#233 = CARTESIAN_POINT ( 'NONE',  ( -3.250000000000000444, 0.000000000000000000, 505.0000000000000000 ) ) ;
#234 = AXIS2_PLACEMENT_3D ( 'NONE', #68, #118, #41 ) ;
#235 = UNCERTAINTY_MEASURE_WITH_UNIT (LENGTH_MEASURE( 1.000000000000000082E-05 ), #122, 'distance_accuracy_value', 'NONE');
#236 = DIRECTION ( 'NONE',  ( -0.000000000000000000, -0.000000000000000000, -1.000000000000000000 ) ) ;
#237 = DIRECTION ( 'NONE',  ( 1.000000000000000000, 0.000000000000000000, 0.000000000000000000 ) ) ;
#238 = DIRECTION ( 'NONE',  ( 1.000000000000000000, 0.000000000000000000, -0.000000000000000000 ) ) ;
#239 = DIRECTION ( 'NONE',  ( -1.000000000000000000, 0.000000000000000000, 0.000000000000000000 ) ) ;
#240 = AXIS2_PLACEMENT_3D ( 'NONE', #257, #212, #301 ) ;
#241 = CC_DESIGN_APPROVAL ( #189, ( #204 ) ) ;
#242 = CALENDAR_DATE ( 2022, 7, 7 ) ;
#243 = ORIENTED_EDGE ( 'NONE', *, *, #49, .F. ) ;
#244 = ORIENTED_EDGE ( 'NONE', *, *, #193, .F. ) ;
#245 =( GEOMETRIC_REPRESENTATION_CONTEXT ( 3 ) GLOBAL_UNCERTAINTY_ASSIGNED_CONTEXT ( ( #235 ) ) GLOBAL_UNIT_ASSIGNED_CONTEXT ( ( #122, #146, #55 ) ) REPRESENTATION_CONTEXT ( 'NONE', 'WORKASPACE' ) );
#246 = ORIENTED_EDGE ( 'NONE', *, *, #297, .F. ) ;
#247 = APPROVAL_STATUS ( 'not_yet_approved' ) ;
#248 = VERTEX_POINT ( 'NONE', #76 ) ;
#249 = APPROVAL ( #8, 'NEURÈENÝ' ) ;
#250 = PERSON_AND_ORGANIZATION_ROLE ( 'design_supplier' ) ;
#251 = CARTESIAN_POINT ( 'NONE',  ( 6.000000000000000888, 7.347880794884120722E-16, 0.000000000000000000 ) ) ;
#252 = EDGE_CURVE ( 'NONE', #112, #35, #88, .T. ) ;
#253 = APPLICATION_CONTEXT ( 'configuration controlled 3d designs of mechanical parts and assemblies' ) ;
#254 = AXIS2_PLACEMENT_3D ( 'NONE', #77, #51, #124 ) ;
#255 = FACE_OUTER_BOUND ( 'NONE', #83, .T. ) ;
#256 = FACE_BOUND ( 'NONE', #66, .T. ) ;
#257 = CARTESIAN_POINT ( 'NONE',  ( 0.000000000000000000, 0.000000000000000000, 0.000000000000000000 ) ) ;
#258 = DIRECTION ( 'NONE',  ( 0.000000000000000000, 0.000000000000000000, 1.000000000000000000 ) ) ;
#259 = CIRCLE ( 'NONE', #224, 6.000000000000000888 ) ;
#260 = LINE ( 'NONE', #217, #173 ) ;
#261 = CYLINDRICAL_SURFACE ( 'NONE', #43, 3.250000000000000444 ) ;
#262 = PERSON_AND_ORGANIZATION_ROLE ( 'design_owner' ) ;
#263 = PERSON_AND_ORGANIZATION ( #82, #285 ) ;
#264 = CIRCLE ( 'NONE', #37, 3.250000000000000444 ) ;
#265 = ORIENTED_EDGE ( 'NONE', *, *, #70, .F. ) ;
#266 = EDGE_LOOP ( 'NONE', ( #228, #153, #221, #196 ) ) ;
#267 = CALENDAR_DATE ( 2022, 7, 7 ) ;
#268 = AXIS2_PLACEMENT_3D ( 'NONE', #208, #72, #229 ) ;
#269 = APPROVAL_ROLE ( '' ) ;
#270 = ORIENTED_EDGE ( 'NONE', *, *, #252, .F. ) ;
#271 = ADVANCED_FACE ( 'NONE', ( #169 ), #261, .T. ) ;
#272 = DIRECTION ( 'NONE',  ( 1.224646799147353207E-16, 1.000000000000000000, -0.000000000000000000 ) ) ;
#273 = DATE_AND_TIME ( #242, #215 ) ;
#274 = CC_DESIGN_PERSON_AND_ORGANIZATION_ASSIGNMENT ( #171, #262, ( #159 ) ) ;
#275 = DIRECTION ( 'NONE',  ( 0.000000000000000000, 0.000000000000000000, 1.000000000000000000 ) ) ;
#276 = CARTESIAN_POINT ( 'NONE',  ( 3.450000000000000178, 0.000000000000000000, 4.999999999999991118 ) ) ;
#277 = CARTESIAN_POINT ( 'NONE',  ( -3.450000000000000178, 4.225031457058368824E-16, 5.199999999999982414 ) ) ;
#278 = EDGE_CURVE ( 'NONE', #151, #59, #96, .T. ) ;
#279 = CARTESIAN_POINT ( 'NONE',  ( -6.000000000000000888, 0.000000000000000000, 5.000000000000000000 ) ) ;
#280 = TOROIDAL_SURFACE ( 'NONE', #136, 3.450000000000000178, 0.2000000000000000111 ) ;
#281 = CC_DESIGN_DATE_AND_TIME_ASSIGNMENT ( #273, #32, ( #44 ) ) ;
#282 = DIRECTION ( 'NONE',  ( 1.000000000000000000, 0.000000000000000000, 0.000000000000000000 ) ) ;
#283 = CARTESIAN_POINT ( 'NONE',  ( 0.000000000000000000, 0.000000000000000000, 0.000000000000000000 ) ) ;
#284 = CARTESIAN_POINT ( 'NONE',  ( 0.000000000000000000, 0.000000000000000000, 5.199999999999982414 ) ) ;
#285 = ORGANIZATION ( 'NEURÈENÝ', 'NEURÈENÝ', '' ) ;
#286 = MECHANICAL_CONTEXT ( 'NONE', #253, 'mechanical' ) ;
#287 = DATE_AND_TIME ( #181, #295 ) ;
#288 = VERTEX_POINT ( 'NONE', #190 ) ;
#289 = CLOSED_SHELL ( 'NONE', ( #176, #20, #86, #28, #111, #219, #271, #227, #144 ) ) ;
#290 = ORIENTED_EDGE ( 'NONE', *, *, #278, .F. ) ;
#291 = PERSON_AND_ORGANIZATION_ROLE ( 'classification_officer' ) ;
#292 = CC_DESIGN_DATE_AND_TIME_ASSIGNMENT ( #65, #137, ( #100 ) ) ;
#293 = ORIENTED_EDGE ( 'NONE', *, *, #302, .F. ) ;
#294 = AXIS2_PLACEMENT_3D ( 'NONE', #47, #161, #158 ) ;
#295 = LOCAL_TIME ( 12, 8, 41.00000000000000000, #15 ) ;
#296 = ORIENTED_EDGE ( 'NONE', *, *, #49, .T. ) ;
#297 = EDGE_CURVE ( 'NONE', #107, #288, #259, .T. ) ;
#298 = CYLINDRICAL_SURFACE ( 'NONE', #294, 6.000000000000000888 ) ;
#299 = COORDINATED_UNIVERSAL_TIME_OFFSET ( 1, 0, .AHEAD. ) ;
#300 = FACE_OUTER_BOUND ( 'NONE', #226, .T. ) ;
#301 = DIRECTION ( 'NONE',  ( 1.000000000000000000, 0.000000000000000000, 0.000000000000000000 ) ) ;
#302 = EDGE_CURVE ( 'NONE', #59, #151, #264, .T. ) ;
#303 = DIRECTION ( 'NONE',  ( 1.000000000000000000, 0.000000000000000000, 0.000000000000000000 ) ) ;
#304 = FACE_OUTER_BOUND ( 'NONE', #225, .T. ) ;
#305 = CARTESIAN_POINT ( 'NONE',  ( 0.000000000000000000, 0.000000000000000000, 0.000000000000000000 ) ) ;
#306 = VECTOR ( 'NONE', #139, 1000.000000000000000 ) ;
#307 = VECTOR ( 'NONE', #102, 1000.000000000000000 ) ;
ENDSEC;
END-ISO-10303-21;
