ISO-10303-21;
HEADER;
FILE_DESCRIPTION (( 'STEP AP203' ),
    '1' );
FILE_NAME ('d9c7.STEP',
    '2022-07-07T10:36:08',
    ( '' ),
    ( '' ),
    'SwSTEP 2.0',
    'SolidWorks 2019',
    '' );
FILE_SCHEMA (( 'CONFIG_CONTROL_DESIGN' ));
ENDSEC;

DATA;
#1 = ORIENTED_EDGE ( 'NONE', *, *, #291, .F. ) ;
#2 = LOCAL_TIME ( 12, 36, 8.000000000000000000, #90 ) ;
#3 = DIRECTION ( 'NONE',  ( 1.000000000000000000, 0.000000000000000000, 0.000000000000000000 ) ) ;
#4 = DIRECTION ( 'NONE',  ( 1.000000000000000000, 0.000000000000000000, 0.000000000000000000 ) ) ;
#5 = CLOSED_SHELL ( 'NONE', ( #256, #82, #252, #26, #85, #59, #215, #68, #105 ) ) ;
#6 = CARTESIAN_POINT ( 'NONE',  ( 0.000000000000000000, 0.000000000000000000, 127.0000000000000000 ) ) ;
#7 = CARTESIAN_POINT ( 'NONE',  ( -2.000000000000000000, 0.000000000000000000, 0.000000000000000000 ) ) ;
#8 = DIRECTION ( 'NONE',  ( 1.000000000000000000, 0.000000000000000000, -0.000000000000000000 ) ) ;
#9 = LINE ( 'NONE', #33, #153 ) ;
#10 = VECTOR ( 'NONE', #167, 1000.000000000000000 ) ;
#11 = CARTESIAN_POINT ( 'NONE',  ( -1.000000000000000000, 0.000000000000000000, 2.199999999999993516 ) ) ;
#12 = PRODUCT_DEFINITION_SHAPE ( 'NONE', 'NONE',  #136 ) ;
#13 = EDGE_CURVE ( 'NONE', #180, #232, #194, .T. ) ;
#14 = DATE_AND_TIME ( #137, #263 ) ;
#15 = CIRCLE ( 'NONE', #49, 2.000000000000000000 ) ;
#16 = AXIS2_PLACEMENT_3D ( 'NONE', #87, #196, #219 ) ;
#17 = DATE_AND_TIME ( #160, #251 ) ;
#18 = EDGE_CURVE ( 'NONE', #230, #288, #235, .T. ) ;
#19 = EDGE_LOOP ( 'NONE', ( #119, #30, #161, #277 ) ) ;
#20 = EDGE_LOOP ( 'NONE', ( #80, #229 ) ) ;
#21 = APPLICATION_PROTOCOL_DEFINITION ( 'international standard', 'config_control_design', 1994, #74 ) ;
#22 = EDGE_CURVE ( 'NONE', #180, #301, #145, .T. ) ;
#23 = PERSON_AND_ORGANIZATION ( #25, #223 ) ;
#24 = ORIENTED_EDGE ( 'NONE', *, *, #302, .F. ) ;
#25 = PERSON ( 'NEURÈENÝ', 'NEURÈENÝ', 'NEURÈENÝ', ('NEURÈENÝ'), ('NEURÈENÝ'), ('NEURÈENÝ') ) ;
#26 = ADVANCED_FACE ( 'NONE', ( #97 ), #101, .T. ) ;
#27 = CARTESIAN_POINT ( 'NONE',  ( 0.000000000000000000, 0.000000000000000000, 2.000000000000000000 ) ) ;
#28 = CC_DESIGN_APPROVAL ( #117, ( #237 ) ) ;
#29 = CYLINDRICAL_SURFACE ( 'NONE', #60, 1.000000000000000000 ) ;
#30 = ORIENTED_EDGE ( 'NONE', *, *, #77, .F. ) ;
#31 = DIRECTION ( 'NONE',  ( 1.000000000000000000, 0.000000000000000000, 0.000000000000000000 ) ) ;
#32 = DIRECTION ( 'NONE',  ( 0.000000000000000000, 0.000000000000000000, 1.000000000000000000 ) ) ;
#33 = CARTESIAN_POINT ( 'NONE',  ( -2.000000000000000000, 0.000000000000000000, 2.000000000000000000 ) ) ;
#34 = CARTESIAN_POINT ( 'NONE',  ( 0.000000000000000000, 0.000000000000000000, 2.199999999999993516 ) ) ;
#35 = APPLICATION_CONTEXT ( 'configuration controlled 3d designs of mechanical parts and assemblies' ) ;
#36 = PRODUCT_RELATED_PRODUCT_CATEGORY ( 'detail', '', ( #61 ) ) ;
#37 = AXIS2_PLACEMENT_3D ( 'NONE', #271, #249, #83 ) ;
#38 = DIRECTION ( 'NONE',  ( -0.000000000000000000, -0.000000000000000000, -1.000000000000000000 ) ) ;
#39 = EDGE_CURVE ( 'NONE', #164, #232, #88, .T. ) ;
#40 =( NAMED_UNIT ( * ) SI_UNIT ( $, .STERADIAN. ) SOLID_ANGLE_UNIT ( ) );
#41 = PERSON_AND_ORGANIZATION ( #25, #223 ) ;
#42 = DATE_TIME_ROLE ( 'creation_date' ) ;
#43 = APPROVAL_STATUS ( 'not_yet_approved' ) ;
#44 = ORIENTED_EDGE ( 'NONE', *, *, #159, .T. ) ;
#45 = EDGE_CURVE ( 'NONE', #169, #204, #15, .T. ) ;
#46 = CARTESIAN_POINT ( 'NONE',  ( 1.200000000000000178, 0.000000000000000000, 2.199999999999993516 ) ) ;
#47 = CC_DESIGN_PERSON_AND_ORGANIZATION_ASSIGNMENT ( #115, #94, ( #61 ) ) ;
#48 = CARTESIAN_POINT ( 'NONE',  ( 0.000000000000000000, 0.000000000000000000, 2.000000000000000000 ) ) ;
#49 = AXIS2_PLACEMENT_3D ( 'NONE', #48, #126, #31 ) ;
#50 = ORIENTED_EDGE ( 'NONE', *, *, #13, .T. ) ;
#51 = DIRECTION ( 'NONE',  ( -1.000000000000000000, 0.000000000000000000, 0.000000000000000000 ) ) ;
#52 = DIRECTION ( 'NONE',  ( 0.000000000000000000, 0.000000000000000000, 1.000000000000000000 ) ) ;
#53 = AXIS2_PLACEMENT_3D ( 'NONE', #6, #172, #265 ) ;
#54 = CARTESIAN_POINT ( 'NONE',  ( 2.000000000000000000, 2.449293598294706414E-16, 2.000000000000000000 ) ) ;
#55 = AXIS2_PLACEMENT_3D ( 'NONE', #133, #273, #154 ) ;
#56 =( LENGTH_UNIT ( ) NAMED_UNIT ( * ) SI_UNIT ( .MILLI., .METRE. ) );
#57 = DIRECTION ( 'NONE',  ( 0.000000000000000000, 0.000000000000000000, 1.000000000000000000 ) ) ;
#58 = CARTESIAN_POINT ( 'NONE',  ( -1.200000000000000178, 1.469576158976823799E-16, 1.999999999999996669 ) ) ;
#59 = ADVANCED_FACE ( 'NONE', ( #286 ), #127, .F. ) ;
#60 = AXIS2_PLACEMENT_3D ( 'NONE', #122, #210, #186 ) ;
#61 = PRODUCT ( 'd9c7', 'd9c7', '', ( #231 ) ) ;
#62 = CARTESIAN_POINT ( 'NONE',  ( 0.000000000000000000, 0.000000000000000000, 2.000000000000000000 ) ) ;
#63 = COORDINATED_UNIVERSAL_TIME_OFFSET ( 1, 0, .AHEAD. ) ;
#64 = COORDINATED_UNIVERSAL_TIME_OFFSET ( 1, 0, .AHEAD. ) ;
#65 = ORIENTED_EDGE ( 'NONE', *, *, #302, .T. ) ;
#66 = EDGE_CURVE ( 'NONE', #232, #230, #299, .T. ) ;
#67 = PERSON_AND_ORGANIZATION_ROLE ( 'creator' ) ;
#68 = ADVANCED_FACE ( 'NONE', ( #149 ), #260, .T. ) ;
#69 = PERSON_AND_ORGANIZATION_ROLE ( 'design_supplier' ) ;
#70 = ORIENTED_EDGE ( 'NONE', *, *, #276, .F. ) ;
#71 = CIRCLE ( 'NONE', #112, 1.000000000000000000 ) ;
#72 = DIRECTION ( 'NONE',  ( 1.000000000000000000, 0.000000000000000000, -0.000000000000000000 ) ) ;
#73 = ORIENTED_EDGE ( 'NONE', *, *, #66, .F. ) ;
#74 = APPLICATION_CONTEXT ( 'configuration controlled 3d designs of mechanical parts and assemblies' ) ;
#75 = DIRECTION ( 'NONE',  ( 0.000000000000000000, 0.000000000000000000, -1.000000000000000000 ) ) ;
#76 = AXIS2_PLACEMENT_3D ( 'NONE', #62, #32, #296 ) ;
#77 = EDGE_CURVE ( 'NONE', #301, #180, #222, .T. ) ;
#78 = ORIENTED_EDGE ( 'NONE', *, *, #22, .T. ) ;
#79 = UNCERTAINTY_MEASURE_WITH_UNIT (LENGTH_MEASURE( 1.000000000000000082E-05 ), #56, 'distance_accuracy_value', 'NONE');
#80 = ORIENTED_EDGE ( 'NONE', *, *, #18, .T. ) ;
#81 = DIRECTION ( 'NONE',  ( -1.000000000000000000, 1.224646799147351975E-16, 0.000000000000000000 ) ) ;
#82 = ADVANCED_FACE ( 'NONE', ( #148 ), #29, .T. ) ;
#83 = DIRECTION ( 'NONE',  ( 1.000000000000000000, 0.000000000000000000, 0.000000000000000000 ) ) ;
#84 = APPROVAL_PERSON_ORGANIZATION ( #41, #226, #185 ) ;
#85 = ADVANCED_FACE ( 'NONE', ( #147, #125 ), #239, .T. ) ;
#86 = CARTESIAN_POINT ( 'NONE',  ( 1.000000000000000000, 1.224646799147353207E-16, 127.0000000000000000 ) ) ;
#87 = CARTESIAN_POINT ( 'NONE',  ( 0.000000000000000000, 0.000000000000000000, 2.000000000000000000 ) ) ;
#88 = CIRCLE ( 'NONE', #257, 1.000000000000000000 ) ;
#89 = PERSON_AND_ORGANIZATION ( #25, #223 ) ;
#90 = COORDINATED_UNIVERSAL_TIME_OFFSET ( 1, 0, .AHEAD. ) ;
#91 = PERSON_AND_ORGANIZATION_ROLE ( 'creator' ) ;
#92 = ORIENTED_EDGE ( 'NONE', *, *, #291, .T. ) ;
#93 = CC_DESIGN_SECURITY_CLASSIFICATION ( #237, ( #120 ) ) ;
#94 = PERSON_AND_ORGANIZATION_ROLE ( 'design_owner' ) ;
#95 = CALENDAR_DATE ( 2022, 7, 7 ) ;
#96 = ADVANCED_BREP_SHAPE_REPRESENTATION ( 'd9c7', ( #287, #98 ), #198 ) ;
#97 = FACE_OUTER_BOUND ( 'NONE', #259, .T. ) ;
#98 = AXIS2_PLACEMENT_3D ( 'NONE', #307, #254, #300 ) ;
#99 = DIRECTION ( 'NONE',  ( 0.000000000000000000, 0.000000000000000000, 1.000000000000000000 ) ) ;
#100 = DIRECTION ( 'NONE',  ( 1.000000000000000000, 0.000000000000000000, 0.000000000000000000 ) ) ;
#101 = CYLINDRICAL_SURFACE ( 'NONE', #217, 2.000000000000000000 ) ;
#102 = APPROVAL_PERSON_ORGANIZATION ( #89, #117, #274 ) ;
#103 = DIRECTION ( 'NONE',  ( 1.000000000000000000, 0.000000000000000000, 0.000000000000000000 ) ) ;
#104 = CARTESIAN_POINT ( 'NONE',  ( -1.200000000000000178, 1.469576158976823799E-16, 2.199999999999993516 ) ) ;
#105 = ADVANCED_FACE ( 'NONE', ( #132 ), #245, .F. ) ;
#106 = CARTESIAN_POINT ( 'NONE',  ( 2.000000000000000000, 2.449293598294706414E-16, 0.000000000000000000 ) ) ;
#107 = CYLINDRICAL_SURFACE ( 'NONE', #16, 2.000000000000000000 ) ;
#108 = VECTOR ( 'NONE', #195, 1000.000000000000000 ) ;
#109 = LINE ( 'NONE', #129, #108 ) ;
#110 = DIRECTION ( 'NONE',  ( 1.000000000000000000, 0.000000000000000000, 0.000000000000000000 ) ) ;
#111 = COORDINATED_UNIVERSAL_TIME_OFFSET ( 1, 0, .AHEAD. ) ;
#112 = AXIS2_PLACEMENT_3D ( 'NONE', #34, #177, #110 ) ;
#113 = APPROVAL_DATE_TIME ( #17, #117 ) ;
#114 = ORIENTED_EDGE ( 'NONE', *, *, #197, .F. ) ;
#115 = PERSON_AND_ORGANIZATION ( #25, #223 ) ;
#116 = EDGE_LOOP ( 'NONE', ( #92, #206 ) ) ;
#117 = APPROVAL ( #179, 'NEURÈENÝ' ) ;
#118 = APPROVAL_ROLE ( '' ) ;
#119 = ORIENTED_EDGE ( 'NONE', *, *, #13, .F. ) ;
#120 = PRODUCT_DEFINITION_FORMATION_WITH_SPECIFIED_SOURCE ( 'LIBOVOLNÝ', '', #61, .NOT_KNOWN. ) ;
#121 = PERSON_AND_ORGANIZATION_ROLE ( 'classification_officer' ) ;
#122 = CARTESIAN_POINT ( 'NONE',  ( 0.000000000000000000, 0.000000000000000000, 127.0000000000000000 ) ) ;
#123 = CARTESIAN_POINT ( 'NONE',  ( 0.000000000000000000, 0.000000000000000000, 2.000000000000000000 ) ) ;
#124 = CIRCLE ( 'NONE', #37, 2.000000000000000000 ) ;
#125 = FACE_OUTER_BOUND ( 'NONE', #116, .T. ) ;
#126 = DIRECTION ( 'NONE',  ( 0.000000000000000000, 0.000000000000000000, 1.000000000000000000 ) ) ;
#127 = PLANE ( 'NONE',  #128 ) ;
#128 = AXIS2_PLACEMENT_3D ( 'NONE', #151, #52, #72 ) ;
#129 = CARTESIAN_POINT ( 'NONE',  ( 2.000000000000000000, 2.449293598294706414E-16, 2.000000000000000000 ) ) ;
#130 = CC_DESIGN_DATE_AND_TIME_ASSIGNMENT ( #14, #201, ( #237 ) ) ;
#131 = DIRECTION ( 'NONE',  ( 1.224646799147353207E-16, 1.000000000000000000, -0.000000000000000000 ) ) ;
#132 = FACE_OUTER_BOUND ( 'NONE', #139, .T. ) ;
#133 = CARTESIAN_POINT ( 'NONE',  ( 0.000000000000000000, 0.000000000000000000, 2.199999999999993516 ) ) ;
#134 = CIRCLE ( 'NONE', #76, 2.000000000000000000 ) ;
#135 = DIRECTION ( 'NONE',  ( 1.000000000000000000, 0.000000000000000000, 0.000000000000000000 ) ) ;
#136 = PRODUCT_DEFINITION ( 'NEZNÁMÝ', '', #120, #242 ) ;
#137 = CALENDAR_DATE ( 2022, 7, 7 ) ;
#138 = SECURITY_CLASSIFICATION_LEVEL ( 'unclassified' ) ;
#139 = EDGE_LOOP ( 'NONE', ( #70, #243, #305, #114 ) ) ;
#140 = LOCAL_TIME ( 12, 36, 8.000000000000000000, #111 ) ;
#141 = PERSON_AND_ORGANIZATION ( #25, #223 ) ;
#142 = PERSON_AND_ORGANIZATION ( #25, #223 ) ;
#143 = CALENDAR_DATE ( 2022, 7, 7 ) ;
#144 = ORIENTED_EDGE ( 'NONE', *, *, #209, .T. ) ;
#145 = CIRCLE ( 'NONE', #183, 1.000000000000000000 ) ;
#146 = ORIENTED_EDGE ( 'NONE', *, *, #266, .T. ) ;
#147 = FACE_BOUND ( 'NONE', #20, .T. ) ;
#148 = FACE_OUTER_BOUND ( 'NONE', #189, .T. ) ;
#149 = FACE_OUTER_BOUND ( 'NONE', #303, .T. ) ;
#150 = CC_DESIGN_PERSON_AND_ORGANIZATION_ASSIGNMENT ( #234, #69, ( #120 ) ) ;
#151 = CARTESIAN_POINT ( 'NONE',  ( 0.000000000000000000, 0.000000000000000000, 0.000000000000000000 ) ) ;
#152 = CARTESIAN_POINT ( 'NONE',  ( 0.000000000000000000, 0.000000000000000000, 127.0000000000000000 ) ) ;
#153 = VECTOR ( 'NONE', #272, 1000.000000000000000 ) ;
#154 = DIRECTION ( 'NONE',  ( 1.000000000000000000, 0.000000000000000000, 0.000000000000000000 ) ) ;
#155 = CARTESIAN_POINT ( 'NONE',  ( -1.000000000000000000, 0.000000000000000000, 127.0000000000000000 ) ) ;
#156 = CARTESIAN_POINT ( 'NONE',  ( -1.000000000000000000, 0.000000000000000000, 127.0000000000000000 ) ) ;
#157 = CIRCLE ( 'NONE', #306, 0.2000000000000000944 ) ;
#158 = CARTESIAN_POINT ( 'NONE',  ( 0.000000000000000000, 0.000000000000000000, 127.0000000000000000 ) ) ;
#159 = EDGE_CURVE ( 'NONE', #169, #168, #109, .T. ) ;
#160 = CALENDAR_DATE ( 2022, 7, 7 ) ;
#161 = ORIENTED_EDGE ( 'NONE', *, *, #171, .T. ) ;
#162 = AXIS2_PLACEMENT_3D ( 'NONE', #123, #99, #8 ) ;
#163 = DATE_AND_TIME ( #181, #140 ) ;
#164 = VERTEX_POINT ( 'NONE', #11 ) ;
#165 = EDGE_LOOP ( 'NONE', ( #24, #236 ) ) ;
#166 = APPROVAL_PERSON_ORGANIZATION ( #182, #233, #118 ) ;
#167 = DIRECTION ( 'NONE',  ( -0.000000000000000000, -0.000000000000000000, -1.000000000000000000 ) ) ;
#168 = VERTEX_POINT ( 'NONE', #106 ) ;
#169 = VERTEX_POINT ( 'NONE', #54 ) ;
#170 = CARTESIAN_POINT ( 'NONE',  ( 0.000000000000000000, 0.000000000000000000, 127.0000000000000000 ) ) ;
#171 = EDGE_CURVE ( 'NONE', #301, #164, #292, .T. ) ;
#172 = DIRECTION ( 'NONE',  ( 0.000000000000000000, 0.000000000000000000, 1.000000000000000000 ) ) ;
#173 = FACE_OUTER_BOUND ( 'NONE', #281, .T. ) ;
#174 = LOCAL_TIME ( 12, 36, 8.000000000000000000, #64 ) ;
#175 = CARTESIAN_POINT ( 'NONE',  ( 0.000000000000000000, 0.000000000000000000, 0.000000000000000000 ) ) ;
#176 =( NAMED_UNIT ( * ) PLANE_ANGLE_UNIT ( ) SI_UNIT ( $, .RADIAN. ) );
#177 = DIRECTION ( 'NONE',  ( 0.000000000000000000, 0.000000000000000000, 1.000000000000000000 ) ) ;
#178 = FACE_OUTER_BOUND ( 'NONE', #255, .T. ) ;
#179 = APPROVAL_STATUS ( 'not_yet_approved' ) ;
#180 = VERTEX_POINT ( 'NONE', #86 ) ;
#181 = CALENDAR_DATE ( 2022, 7, 7 ) ;
#182 = PERSON_AND_ORGANIZATION ( #25, #223 ) ;
#183 = AXIS2_PLACEMENT_3D ( 'NONE', #170, #290, #103 ) ;
#184 = APPLICATION_PROTOCOL_DEFINITION ( 'international standard', 'config_control_design', 1994, #35 ) ;
#185 = APPROVAL_ROLE ( '' ) ;
#186 = DIRECTION ( 'NONE',  ( -1.000000000000000000, 0.000000000000000000, 0.000000000000000000 ) ) ;
#187 = AXIS2_PLACEMENT_3D ( 'NONE', #46, #216, #75 ) ;
#188 = TOROIDAL_SURFACE ( 'NONE', #55, 1.200000000000000178, 0.2000000000000000111 ) ;
#189 = EDGE_LOOP ( 'NONE', ( #261, #50, #144, #285 ) ) ;
#190 = CC_DESIGN_DATE_AND_TIME_ASSIGNMENT ( #227, #42, ( #136 ) ) ;
#191 = ORIENTED_EDGE ( 'NONE', *, *, #276, .T. ) ;
#192 = DIRECTION ( 'NONE',  ( -0.000000000000000000, -0.000000000000000000, -1.000000000000000000 ) ) ;
#193 = CC_DESIGN_APPROVAL ( #226, ( #136 ) ) ;
#194 = LINE ( 'NONE', #240, #10 ) ;
#195 = DIRECTION ( 'NONE',  ( -0.000000000000000000, -0.000000000000000000, -1.000000000000000000 ) ) ;
#196 = DIRECTION ( 'NONE',  ( -0.000000000000000000, -0.000000000000000000, -1.000000000000000000 ) ) ;
#197 = EDGE_CURVE ( 'NONE', #288, #230, #289, .T. ) ;
#198 =( GEOMETRIC_REPRESENTATION_CONTEXT ( 3 ) GLOBAL_UNCERTAINTY_ASSIGNED_CONTEXT ( ( #79 ) ) GLOBAL_UNIT_ASSIGNED_CONTEXT ( ( #56, #176, #40 ) ) REPRESENTATION_CONTEXT ( 'NONE', 'WORKASPACE' ) );
#199 = DIRECTION ( 'NONE',  ( -0.000000000000000000, -0.000000000000000000, -1.000000000000000000 ) ) ;
#200 = CYLINDRICAL_SURFACE ( 'NONE', #207, 1.000000000000000000 ) ;
#201 = DATE_TIME_ROLE ( 'classification_date' ) ;
#202 = ORIENTED_EDGE ( 'NONE', *, *, #45, .F. ) ;
#203 = SHAPE_DEFINITION_REPRESENTATION ( #12, #96 ) ;
#204 = VERTEX_POINT ( 'NONE', #297 ) ;
#205 = APPROVAL_STATUS ( 'not_yet_approved' ) ;
#206 = ORIENTED_EDGE ( 'NONE', *, *, #45, .T. ) ;
#207 = AXIS2_PLACEMENT_3D ( 'NONE', #158, #38, #224 ) ;
#208 = COORDINATED_UNIVERSAL_TIME_OFFSET ( 1, 0, .AHEAD. ) ;
#209 = EDGE_CURVE ( 'NONE', #232, #164, #71, .T. ) ;
#210 = DIRECTION ( 'NONE',  ( -0.000000000000000000, -0.000000000000000000, -1.000000000000000000 ) ) ;
#211 = CARTESIAN_POINT ( 'NONE',  ( 0.000000000000000000, 0.000000000000000000, 2.199999999999993516 ) ) ;
#212 = AXIS2_PLACEMENT_3D ( 'NONE', #175, #267, #270 ) ;
#213 = VERTEX_POINT ( 'NONE', #7 ) ;
#214 = DIRECTION ( 'NONE',  ( 0.000000000000000000, 0.000000000000000000, 1.000000000000000000 ) ) ;
#215 = ADVANCED_FACE ( 'NONE', ( #248 ), #200, .T. ) ;
#216 = DIRECTION ( 'NONE',  ( 0.000000000000000000, -1.000000000000000000, 0.000000000000000000 ) ) ;
#217 = AXIS2_PLACEMENT_3D ( 'NONE', #244, #264, #51 ) ;
#218 = CC_DESIGN_PERSON_AND_ORGANIZATION_ASSIGNMENT ( #142, #67, ( #120 ) ) ;
#219 = DIRECTION ( 'NONE',  ( -1.000000000000000000, 0.000000000000000000, 0.000000000000000000 ) ) ;
#220 = CARTESIAN_POINT ( 'NONE',  ( 0.000000000000000000, 0.000000000000000000, 2.199999999999993516 ) ) ;
#221 = CARTESIAN_POINT ( 'NONE',  ( 1.000000000000000000, 1.224646799147353207E-16, 2.199999999999993516 ) ) ;
#222 = CIRCLE ( 'NONE', #294, 1.000000000000000000 ) ;
#223 = ORGANIZATION ( 'NEURÈENÝ', 'NEURÈENÝ', '' ) ;
#224 = DIRECTION ( 'NONE',  ( -1.000000000000000000, 0.000000000000000000, 0.000000000000000000 ) ) ;
#225 = CARTESIAN_POINT ( 'NONE',  ( 0.000000000000000000, 0.000000000000000000, 2.000000000000000000 ) ) ;
#226 = APPROVAL ( #205, 'NEURÈENÝ' ) ;
#227 = DATE_AND_TIME ( #95, #2 ) ;
#228 = CIRCLE ( 'NONE', #212, 2.000000000000000000 ) ;
#229 = ORIENTED_EDGE ( 'NONE', *, *, #197, .T. ) ;
#230 = VERTEX_POINT ( 'NONE', #293 ) ;
#231 = MECHANICAL_CONTEXT ( 'NONE', #74, 'mechanical' ) ;
#232 = VERTEX_POINT ( 'NONE', #221 ) ;
#233 = APPROVAL ( #43, 'NEURÈENÝ' ) ;
#234 = PERSON_AND_ORGANIZATION ( #25, #223 ) ;
#235 = CIRCLE ( 'NONE', #282, 1.200000000000000178 ) ;
#236 = ORIENTED_EDGE ( 'NONE', *, *, #266, .F. ) ;
#237 = SECURITY_CLASSIFICATION ( '', '', #138 ) ;
#238 = ORIENTED_EDGE ( 'NONE', *, *, #246, .F. ) ;
#239 = PLANE ( 'NONE',  #162 ) ;
#240 = CARTESIAN_POINT ( 'NONE',  ( 1.000000000000000000, 1.224646799147353207E-16, 127.0000000000000000 ) ) ;
#241 = ORIENTED_EDGE ( 'NONE', *, *, #18, .F. ) ;
#242 = DESIGN_CONTEXT ( 'detailed design', #35, 'design' ) ;
#243 = ORIENTED_EDGE ( 'NONE', *, *, #209, .F. ) ;
#244 = CARTESIAN_POINT ( 'NONE',  ( 0.000000000000000000, 0.000000000000000000, 2.000000000000000000 ) ) ;
#245 = TOROIDAL_SURFACE ( 'NONE', #258, 1.200000000000000178, 0.2000000000000000111 ) ;
#246 = EDGE_CURVE ( 'NONE', #204, #213, #9, .T. ) ;
#247 = CC_DESIGN_PERSON_AND_ORGANIZATION_ASSIGNMENT ( #141, #91, ( #136 ) ) ;
#248 = FACE_OUTER_BOUND ( 'NONE', #19, .T. ) ;
#249 = DIRECTION ( 'NONE',  ( 0.000000000000000000, 0.000000000000000000, 1.000000000000000000 ) ) ;
#250 = DIRECTION ( 'NONE',  ( -0.000000000000000000, -0.000000000000000000, -1.000000000000000000 ) ) ;
#251 = LOCAL_TIME ( 12, 36, 8.000000000000000000, #63 ) ;
#252 = ADVANCED_FACE ( 'NONE', ( #173 ), #107, .T. ) ;
#253 = ORIENTED_EDGE ( 'NONE', *, *, #77, .T. ) ;
#254 = DIRECTION ( 'NONE',  ( 0.000000000000000000, 0.000000000000000000, 1.000000000000000000 ) ) ;
#255 = EDGE_LOOP ( 'NONE', ( #275, #191, #241, #73 ) ) ;
#256 = ADVANCED_FACE ( 'NONE', ( #178 ), #188, .F. ) ;
#257 = AXIS2_PLACEMENT_3D ( 'NONE', #211, #284, #100 ) ;
#258 = AXIS2_PLACEMENT_3D ( 'NONE', #220, #57, #135 ) ;
#259 = EDGE_LOOP ( 'NONE', ( #262, #1, #279, #65 ) ) ;
#260 = PLANE ( 'NONE',  #53 ) ;
#261 = ORIENTED_EDGE ( 'NONE', *, *, #22, .F. ) ;
#262 = ORIENTED_EDGE ( 'NONE', *, *, #159, .F. ) ;
#263 = LOCAL_TIME ( 12, 36, 8.000000000000000000, #208 ) ;
#264 = DIRECTION ( 'NONE',  ( -0.000000000000000000, -0.000000000000000000, -1.000000000000000000 ) ) ;
#265 = DIRECTION ( 'NONE',  ( 1.000000000000000000, 0.000000000000000000, -0.000000000000000000 ) ) ;
#266 = EDGE_CURVE ( 'NONE', #168, #213, #124, .T. ) ;
#267 = DIRECTION ( 'NONE',  ( 0.000000000000000000, 0.000000000000000000, 1.000000000000000000 ) ) ;
#268 = AXIS2_PLACEMENT_3D ( 'NONE', #225, #250, #298 ) ;
#269 = CC_DESIGN_PERSON_AND_ORGANIZATION_ASSIGNMENT ( #23, #121, ( #237 ) ) ;
#270 = DIRECTION ( 'NONE',  ( 1.000000000000000000, 0.000000000000000000, 0.000000000000000000 ) ) ;
#271 = CARTESIAN_POINT ( 'NONE',  ( 0.000000000000000000, 0.000000000000000000, 0.000000000000000000 ) ) ;
#272 = DIRECTION ( 'NONE',  ( -0.000000000000000000, -0.000000000000000000, -1.000000000000000000 ) ) ;
#273 = DIRECTION ( 'NONE',  ( 0.000000000000000000, 0.000000000000000000, 1.000000000000000000 ) ) ;
#274 = APPROVAL_ROLE ( '' ) ;
#275 = ORIENTED_EDGE ( 'NONE', *, *, #39, .F. ) ;
#276 = EDGE_CURVE ( 'NONE', #164, #288, #157, .T. ) ;
#277 = ORIENTED_EDGE ( 'NONE', *, *, #39, .T. ) ;
#278 = APPROVAL_DATE_TIME ( #280, #233 ) ;
#279 = ORIENTED_EDGE ( 'NONE', *, *, #246, .T. ) ;
#280 = DATE_AND_TIME ( #143, #174 ) ;
#281 = EDGE_LOOP ( 'NONE', ( #202, #44, #146, #238 ) ) ;
#282 = AXIS2_PLACEMENT_3D ( 'NONE', #27, #192, #3 ) ;
#283 = VECTOR ( 'NONE', #199, 1000.000000000000000 ) ;
#284 = DIRECTION ( 'NONE',  ( 0.000000000000000000, 0.000000000000000000, 1.000000000000000000 ) ) ;
#285 = ORIENTED_EDGE ( 'NONE', *, *, #171, .F. ) ;
#286 = FACE_OUTER_BOUND ( 'NONE', #165, .T. ) ;
#287 = MANIFOLD_SOLID_BREP ( 'Zaoblit1', #5 ) ;
#288 = VERTEX_POINT ( 'NONE', #58 ) ;
#289 = CIRCLE ( 'NONE', #268, 1.200000000000000178 ) ;
#290 = DIRECTION ( 'NONE',  ( 0.000000000000000000, 0.000000000000000000, 1.000000000000000000 ) ) ;
#291 = EDGE_CURVE ( 'NONE', #204, #169, #134, .T. ) ;
#292 = LINE ( 'NONE', #155, #283 ) ;
#293 = CARTESIAN_POINT ( 'NONE',  ( 1.200000000000000178, 0.000000000000000000, 1.999999999999996669 ) ) ;
#294 = AXIS2_PLACEMENT_3D ( 'NONE', #152, #214, #4 ) ;
#295 = CC_DESIGN_APPROVAL ( #233, ( #120 ) ) ;
#296 = DIRECTION ( 'NONE',  ( 1.000000000000000000, 0.000000000000000000, 0.000000000000000000 ) ) ;
#297 = CARTESIAN_POINT ( 'NONE',  ( -2.000000000000000000, 0.000000000000000000, 2.000000000000000000 ) ) ;
#298 = DIRECTION ( 'NONE',  ( 1.000000000000000000, 0.000000000000000000, 0.000000000000000000 ) ) ;
#299 = CIRCLE ( 'NONE', #187, 0.2000000000000000944 ) ;
#300 = DIRECTION ( 'NONE',  ( 1.000000000000000000, 0.000000000000000000, 0.000000000000000000 ) ) ;
#301 = VERTEX_POINT ( 'NONE', #156 ) ;
#302 = EDGE_CURVE ( 'NONE', #213, #168, #228, .T. ) ;
#303 = EDGE_LOOP ( 'NONE', ( #253, #78 ) ) ;
#304 = APPROVAL_DATE_TIME ( #163, #226 ) ;
#305 = ORIENTED_EDGE ( 'NONE', *, *, #66, .T. ) ;
#306 = AXIS2_PLACEMENT_3D ( 'NONE', #104, #131, #81 ) ;
#307 = CARTESIAN_POINT ( 'NONE',  ( 0.000000000000000000, 0.000000000000000000, 0.000000000000000000 ) ) ;
ENDSEC;
END-ISO-10303-21;
