ISO-10303-21;
HEADER;
FILE_DESCRIPTION (( 'STEP AP203' ),
    '1' );
FILE_NAME ('6e32.STEP',
    '2022-07-07T10:24:53',
    ( '' ),
    ( '' ),
    'SwSTEP 2.0',
    'SolidWorks 2019',
    '' );
FILE_SCHEMA (( 'CONFIG_CONTROL_DESIGN' ));
ENDSEC;

DATA;
#1 =( LENGTH_UNIT ( ) NAMED_UNIT ( * ) SI_UNIT ( .MILLI., .METRE. ) );
#2 = COORDINATED_UNIVERSAL_TIME_OFFSET ( 1, 0, .AHEAD. ) ;
#3 = ADVANCED_BREP_SHAPE_REPRESENTATION ( '6e32', ( #129, #222 ), #260 ) ;
#4 = AXIS2_PLACEMENT_3D ( 'NONE', #179, #101, #221 ) ;
#5 = ORIENTED_EDGE ( 'NONE', *, *, #248, .F. ) ;
#6 = ORIENTED_EDGE ( 'NONE', *, *, #238, .T. ) ;
#7 = ORIENTED_EDGE ( 'NONE', *, *, #48, .T. ) ;
#8 = AXIS2_PLACEMENT_3D ( 'NONE', #252, #249, #86 ) ;
#9 = ORIENTED_EDGE ( 'NONE', *, *, #17, .T. ) ;
#10 = DIRECTION ( 'NONE',  ( 1.000000000000000000, 0.000000000000000000, 0.000000000000000000 ) ) ;
#11 = CC_DESIGN_DATE_AND_TIME_ASSIGNMENT ( #302, #263, ( #171 ) ) ;
#12 = VERTEX_POINT ( 'NONE', #288 ) ;
#13 = CIRCLE ( 'NONE', #8, 2.000000000000000000 ) ;
#14 = DIRECTION ( 'NONE',  ( 1.000000000000000000, 0.000000000000000000, 0.000000000000000000 ) ) ;
#15 = APPROVAL_PERSON_ORGANIZATION ( #46, #212, #284 ) ;
#16 = CARTESIAN_POINT ( 'NONE',  ( 0.000000000000000000, 0.000000000000000000, 3.199999999999980638 ) ) ;
#17 = EDGE_CURVE ( 'NONE', #69, #12, #61, .T. ) ;
#18 = CARTESIAN_POINT ( 'NONE',  ( 4.000000000000000000, 4.898587196589412829E-16, 3.000000000000000000 ) ) ;
#19 = AXIS2_PLACEMENT_3D ( 'NONE', #140, #100, #76 ) ;
#20 = DIRECTION ( 'NONE',  ( 1.000000000000000000, 0.000000000000000000, 0.000000000000000000 ) ) ;
#21 = PERSON_AND_ORGANIZATION ( #57, #186 ) ;
#22 = PRODUCT_RELATED_PRODUCT_CATEGORY ( 'detail', '', ( #218 ) ) ;
#23 = APPLICATION_PROTOCOL_DEFINITION ( 'international standard', 'config_control_design', 1994, #164 ) ;
#24 = ORIENTED_EDGE ( 'NONE', *, *, #290, .F. ) ;
#25 = DATE_AND_TIME ( #182, #121 ) ;
#26 = ORIENTED_EDGE ( 'NONE', *, *, #63, .T. ) ;
#27 = PRODUCT_DEFINITION_FORMATION_WITH_SPECIFIED_SOURCE ( 'LIBOVOLNÝ', '', #218, .NOT_KNOWN. ) ;
#28 = PERSON_AND_ORGANIZATION_ROLE ( 'design_supplier' ) ;
#29 = DIRECTION ( 'NONE',  ( 0.000000000000000000, 0.000000000000000000, 1.000000000000000000 ) ) ;
#30 = EDGE_CURVE ( 'NONE', #50, #47, #232, .T. ) ;
#31 = VECTOR ( 'NONE', #226, 1000.000000000000000 ) ;
#32 = DIRECTION ( 'NONE',  ( 1.000000000000000000, 0.000000000000000000, 0.000000000000000000 ) ) ;
#33 = ADVANCED_FACE ( 'NONE', ( #122 ), #274, .F. ) ;
#34 = DIRECTION ( 'NONE',  ( -0.000000000000000000, -0.000000000000000000, -1.000000000000000000 ) ) ;
#35 = ADVANCED_FACE ( 'NONE', ( #56 ), #270, .T. ) ;
#36 = CARTESIAN_POINT ( 'NONE',  ( 0.000000000000000000, 0.000000000000000000, 1002.999999999999886 ) ) ;
#37 = EDGE_LOOP ( 'NONE', ( #134, #246, #159, #96 ) ) ;
#38 = DIRECTION ( 'NONE',  ( 1.000000000000000000, 0.000000000000000000, 0.000000000000000000 ) ) ;
#39 = CARTESIAN_POINT ( 'NONE',  ( 2.000000000000000000, 2.449293598294706414E-16, 1002.999999999999886 ) ) ;
#40 = FACE_OUTER_BOUND ( 'NONE', #116, .T. ) ;
#41 = DIRECTION ( 'NONE',  ( 1.000000000000000000, 0.000000000000000000, 0.000000000000000000 ) ) ;
#42 = CARTESIAN_POINT ( 'NONE',  ( 4.000000000000000000, 4.898587196589412829E-16, 3.000000000000000000 ) ) ;
#43 = EDGE_CURVE ( 'NONE', #206, #189, #97, .T. ) ;
#44 = CC_DESIGN_SECURITY_CLASSIFICATION ( #261, ( #27 ) ) ;
#45 = APPROVAL_DATE_TIME ( #262, #176 ) ;
#46 = PERSON_AND_ORGANIZATION ( #57, #186 ) ;
#47 = VERTEX_POINT ( 'NONE', #167 ) ;
#48 = EDGE_CURVE ( 'NONE', #220, #305, #135, .T. ) ;
#49 = APPROVAL_ROLE ( '' ) ;
#50 = VERTEX_POINT ( 'NONE', #148 ) ;
#51 = AXIS2_PLACEMENT_3D ( 'NONE', #293, #243, #170 ) ;
#52 = CARTESIAN_POINT ( 'NONE',  ( 0.000000000000000000, 0.000000000000000000, 3.000000000000000000 ) ) ;
#53 = VERTEX_POINT ( 'NONE', #264 ) ;
#54 = AXIS2_PLACEMENT_3D ( 'NONE', #99, #266, #98 ) ;
#55 = AXIS2_PLACEMENT_3D ( 'NONE', #120, #217, #20 ) ;
#56 = FACE_OUTER_BOUND ( 'NONE', #215, .T. ) ;
#57 = PERSON ( 'NEURÈENÝ', 'NEURÈENÝ', 'NEURÈENÝ', ('NEURÈENÝ'), ('NEURÈENÝ'), ('NEURÈENÝ') ) ;
#58 = AXIS2_PLACEMENT_3D ( 'NONE', #149, #153, #38 ) ;
#59 = CARTESIAN_POINT ( 'NONE',  ( 0.000000000000000000, 0.000000000000000000, 3.000000000000000000 ) ) ;
#60 = LINE ( 'NONE', #174, #240 ) ;
#61 = CIRCLE ( 'NONE', #51, 4.000000000000000000 ) ;
#62 = DIRECTION ( 'NONE',  ( -0.000000000000000000, -0.000000000000000000, -1.000000000000000000 ) ) ;
#63 = EDGE_CURVE ( 'NONE', #53, #220, #257, .T. ) ;
#64 = AXIS2_PLACEMENT_3D ( 'NONE', #297, #65, #198 ) ;
#65 = DIRECTION ( 'NONE',  ( -0.000000000000000000, -0.000000000000000000, -1.000000000000000000 ) ) ;
#66 = DIRECTION ( 'NONE',  ( 0.000000000000000000, -1.000000000000000000, 0.000000000000000000 ) ) ;
#67 = PERSON_AND_ORGANIZATION_ROLE ( 'classification_officer' ) ;
#68 = PERSON_AND_ORGANIZATION ( #57, #186 ) ;
#69 = VERTEX_POINT ( 'NONE', #195 ) ;
#70 =( NAMED_UNIT ( * ) PLANE_ANGLE_UNIT ( ) SI_UNIT ( $, .RADIAN. ) );
#71 = EDGE_LOOP ( 'NONE', ( #24, #259, #283, #193 ) ) ;
#72 = CIRCLE ( 'NONE', #55, 4.000000000000000000 ) ;
#73 = LOCAL_TIME ( 12, 24, 53.00000000000000000, #138 ) ;
#74 = ORIENTED_EDGE ( 'NONE', *, *, #43, .T. ) ;
#75 = ADVANCED_FACE ( 'NONE', ( #117 ), #123, .T. ) ;
#76 = DIRECTION ( 'NONE',  ( -1.000000000000000000, 1.224646799147353207E-16, 0.000000000000000000 ) ) ;
#77 = DIRECTION ( 'NONE',  ( 1.000000000000000000, 0.000000000000000000, 0.000000000000000000 ) ) ;
#78 = LOCAL_TIME ( 12, 24, 53.00000000000000000, #111 ) ;
#79 = LINE ( 'NONE', #169, #298 ) ;
#80 = ORIENTED_EDGE ( 'NONE', *, *, #300, .T. ) ;
#81 = DIRECTION ( 'NONE',  ( 0.000000000000000000, 0.000000000000000000, 1.000000000000000000 ) ) ;
#82 = CARTESIAN_POINT ( 'NONE',  ( 0.000000000000000000, 0.000000000000000000, 0.000000000000000000 ) ) ;
#83 = EDGE_CURVE ( 'NONE', #50, #53, #79, .T. ) ;
#84 = CARTESIAN_POINT ( 'NONE',  ( 2.200000000000000178, 0.000000000000000000, 3.199999999999980638 ) ) ;
#85 = AXIS2_PLACEMENT_3D ( 'NONE', #36, #143, #192 ) ;
#86 = DIRECTION ( 'NONE',  ( 1.000000000000000000, 0.000000000000000000, 0.000000000000000000 ) ) ;
#87 = CYLINDRICAL_SURFACE ( 'NONE', #64, 4.000000000000000000 ) ;
#88 = FACE_BOUND ( 'NONE', #239, .T. ) ;
#89 = SECURITY_CLASSIFICATION_LEVEL ( 'unclassified' ) ;
#90 = CALENDAR_DATE ( 2022, 7, 7 ) ;
#91 = ORIENTED_EDGE ( 'NONE', *, *, #278, .F. ) ;
#92 = DIRECTION ( 'NONE',  ( 1.000000000000000000, 0.000000000000000000, 0.000000000000000000 ) ) ;
#93 = EDGE_CURVE ( 'NONE', #12, #69, #72, .T. ) ;
#94 = EDGE_LOOP ( 'NONE', ( #267, #286, #80, #112 ) ) ;
#95 = ORIENTED_EDGE ( 'NONE', *, *, #271, .T. ) ;
#96 = ORIENTED_EDGE ( 'NONE', *, *, #48, .F. ) ;
#97 = CIRCLE ( 'NONE', #208, 4.000000000000000000 ) ;
#98 = DIRECTION ( 'NONE',  ( -1.000000000000000000, 0.000000000000000000, 0.000000000000000000 ) ) ;
#99 = CARTESIAN_POINT ( 'NONE',  ( 0.000000000000000000, 0.000000000000000000, 1002.999999999999886 ) ) ;
#100 = DIRECTION ( 'NONE',  ( 1.224646799147353207E-16, 1.000000000000000000, -0.000000000000000000 ) ) ;
#101 = DIRECTION ( 'NONE',  ( 0.000000000000000000, 0.000000000000000000, 1.000000000000000000 ) ) ;
#102 = ADVANCED_FACE ( 'NONE', ( #196 ), #225, .T. ) ;
#103 = LOCAL_TIME ( 12, 24, 53.00000000000000000, #137 ) ;
#104 = DIRECTION ( 'NONE',  ( 0.000000000000000000, 0.000000000000000000, 1.000000000000000000 ) ) ;
#105 = DIRECTION ( 'NONE',  ( 1.000000000000000000, 0.000000000000000000, 0.000000000000000000 ) ) ;
#106 = AXIS2_PLACEMENT_3D ( 'NONE', #269, #81, #32 ) ;
#107 = CARTESIAN_POINT ( 'NONE',  ( -2.200000000000000178, 2.694222958124177006E-16, 2.999999999999990674 ) ) ;
#108 = FACE_OUTER_BOUND ( 'NONE', #165, .T. ) ;
#109 = CALENDAR_DATE ( 2022, 7, 7 ) ;
#110 = ADVANCED_FACE ( 'NONE', ( #155 ), #201, .F. ) ;
#111 = COORDINATED_UNIVERSAL_TIME_OFFSET ( 1, 0, .AHEAD. ) ;
#112 = ORIENTED_EDGE ( 'NONE', *, *, #83, .F. ) ;
#113 =( NAMED_UNIT ( * ) SI_UNIT ( $, .STERADIAN. ) SOLID_ANGLE_UNIT ( ) );
#114 = PERSON_AND_ORGANIZATION ( #57, #186 ) ;
#115 = ORIENTED_EDGE ( 'NONE', *, *, #268, .T. ) ;
#116 = EDGE_LOOP ( 'NONE', ( #139, #74 ) ) ;
#117 = FACE_OUTER_BOUND ( 'NONE', #94, .T. ) ;
#118 = ORIENTED_EDGE ( 'NONE', *, *, #43, .F. ) ;
#119 = CC_DESIGN_DATE_AND_TIME_ASSIGNMENT ( #25, #255, ( #261 ) ) ;
#120 = CARTESIAN_POINT ( 'NONE',  ( 0.000000000000000000, 0.000000000000000000, 0.000000000000000000 ) ) ;
#121 = LOCAL_TIME ( 12, 24, 53.00000000000000000, #157 ) ;
#122 = FACE_OUTER_BOUND ( 'NONE', #37, .T. ) ;
#123 = CYLINDRICAL_SURFACE ( 'NONE', #54, 2.000000000000000000 ) ;
#124 = ADVANCED_FACE ( 'NONE', ( #88, #40 ), #151, .T. ) ;
#125 = PLANE ( 'NONE',  #294 ) ;
#126 = AXIS2_PLACEMENT_3D ( 'NONE', #16, #175, #41 ) ;
#127 = CARTESIAN_POINT ( 'NONE',  ( 0.000000000000000000, 0.000000000000000000, 1002.999999999999886 ) ) ;
#128 = DIRECTION ( 'NONE',  ( 0.000000000000000000, 0.000000000000000000, 1.000000000000000000 ) ) ;
#129 = MANIFOLD_SOLID_BREP ( 'Zaoblit1', #154 ) ;
#130 = CC_DESIGN_PERSON_AND_ORGANIZATION_ASSIGNMENT ( #280, #67, ( #261 ) ) ;
#131 = CARTESIAN_POINT ( 'NONE',  ( 2.200000000000000178, 0.000000000000000000, 2.999999999999990674 ) ) ;
#132 = TOROIDAL_SURFACE ( 'NONE', #254, 2.200000000000000178, 0.2000000000000000111 ) ;
#133 = DIRECTION ( 'NONE',  ( 1.000000000000000000, 0.000000000000000000, -0.000000000000000000 ) ) ;
#134 = ORIENTED_EDGE ( 'NONE', *, *, #63, .F. ) ;
#135 = CIRCLE ( 'NONE', #216, 2.200000000000000178 ) ;
#136 = DATE_AND_TIME ( #90, #73 ) ;
#137 = COORDINATED_UNIVERSAL_TIME_OFFSET ( 1, 0, .AHEAD. ) ;
#138 = COORDINATED_UNIVERSAL_TIME_OFFSET ( 1, 0, .AHEAD. ) ;
#139 = ORIENTED_EDGE ( 'NONE', *, *, #144, .T. ) ;
#140 = CARTESIAN_POINT ( 'NONE',  ( -2.200000000000000178, 2.694222958124177006E-16, 3.199999999999980638 ) ) ;
#141 = AXIS2_PLACEMENT_3D ( 'NONE', #82, #295, #301 ) ;
#142 = APPROVAL_PERSON_ORGANIZATION ( #304, #303, #236 ) ;
#143 = DIRECTION ( 'NONE',  ( 0.000000000000000000, 0.000000000000000000, 1.000000000000000000 ) ) ;
#144 = EDGE_CURVE ( 'NONE', #189, #206, #276, .T. ) ;
#145 = DIRECTION ( 'NONE',  ( -0.000000000000000000, -0.000000000000000000, -1.000000000000000000 ) ) ;
#146 = EDGE_LOOP ( 'NONE', ( #172, #95 ) ) ;
#147 = AXIS2_PLACEMENT_3D ( 'NONE', #127, #62, #253 ) ;
#148 = CARTESIAN_POINT ( 'NONE',  ( -2.000000000000000000, 0.000000000000000000, 1002.999999999999886 ) ) ;
#149 = CARTESIAN_POINT ( 'NONE',  ( 0.000000000000000000, 0.000000000000000000, 3.199999999999980638 ) ) ;
#150 = LINE ( 'NONE', #42, #31 ) ;
#151 = PLANE ( 'NONE',  #4 ) ;
#152 = ADVANCED_FACE ( 'NONE', ( #108 ), #132, .F. ) ;
#153 = DIRECTION ( 'NONE',  ( 0.000000000000000000, 0.000000000000000000, 1.000000000000000000 ) ) ;
#154 = CLOSED_SHELL ( 'NONE', ( #152, #75, #35, #235, #124, #110, #102, #223, #33 ) ) ;
#155 = FACE_OUTER_BOUND ( 'NONE', #231, .T. ) ;
#156 = AXIS2_PLACEMENT_3D ( 'NONE', #84, #66, #173 ) ;
#157 = COORDINATED_UNIVERSAL_TIME_OFFSET ( 1, 0, .AHEAD. ) ;
#158 = CALENDAR_DATE ( 2022, 7, 7 ) ;
#159 = ORIENTED_EDGE ( 'NONE', *, *, #248, .T. ) ;
#160 = CALENDAR_DATE ( 2022, 7, 7 ) ;
#161 = PERSON_AND_ORGANIZATION_ROLE ( 'creator' ) ;
#162 = CC_DESIGN_APPROVAL ( #303, ( #27 ) ) ;
#163 = APPROVAL_STATUS ( 'not_yet_approved' ) ;
#164 = APPLICATION_CONTEXT ( 'configuration controlled 3d designs of mechanical parts and assemblies' ) ;
#165 = EDGE_LOOP ( 'NONE', ( #91, #26, #190, #5 ) ) ;
#166 = EDGE_CURVE ( 'NONE', #206, #69, #150, .T. ) ;
#167 = CARTESIAN_POINT ( 'NONE',  ( 2.000000000000000000, 2.449293598294706414E-16, 1002.999999999999886 ) ) ;
#168 = CC_DESIGN_APPROVAL ( #176, ( #171 ) ) ;
#169 = CARTESIAN_POINT ( 'NONE',  ( -2.000000000000000000, 0.000000000000000000, 1002.999999999999886 ) ) ;
#170 = DIRECTION ( 'NONE',  ( 1.000000000000000000, 0.000000000000000000, 0.000000000000000000 ) ) ;
#171 = PRODUCT_DEFINITION ( 'NEZNÁMÝ', '', #27, #188 ) ;
#172 = ORIENTED_EDGE ( 'NONE', *, *, #30, .T. ) ;
#173 = DIRECTION ( 'NONE',  ( 0.000000000000000000, 0.000000000000000000, -1.000000000000000000 ) ) ;
#174 = CARTESIAN_POINT ( 'NONE',  ( -4.000000000000000000, 0.000000000000000000, 3.000000000000000000 ) ) ;
#175 = DIRECTION ( 'NONE',  ( 0.000000000000000000, 0.000000000000000000, 1.000000000000000000 ) ) ;
#176 = APPROVAL ( #163, 'NEURÈENÝ' ) ;
#177 = CIRCLE ( 'NONE', #126, 2.000000000000000000 ) ;
#178 = CARTESIAN_POINT ( 'NONE',  ( 0.000000000000000000, 0.000000000000000000, 3.000000000000000000 ) ) ;
#179 = CARTESIAN_POINT ( 'NONE',  ( 0.000000000000000000, 0.000000000000000000, 3.000000000000000000 ) ) ;
#180 = PERSON_AND_ORGANIZATION_ROLE ( 'design_owner' ) ;
#181 = CC_DESIGN_APPROVAL ( #212, ( #261 ) ) ;
#182 = CALENDAR_DATE ( 2022, 7, 7 ) ;
#183 = ORIENTED_EDGE ( 'NONE', *, *, #166, .F. ) ;
#184 = APPROVAL_DATE_TIME ( #136, #303 ) ;
#185 = APPROVAL_STATUS ( 'not_yet_approved' ) ;
#186 = ORGANIZATION ( 'NEURÈENÝ', 'NEURÈENÝ', '' ) ;
#187 = ORIENTED_EDGE ( 'NONE', *, *, #144, .F. ) ;
#188 = DESIGN_CONTEXT ( 'detailed design', #229, 'design' ) ;
#189 = VERTEX_POINT ( 'NONE', #247 ) ;
#190 = ORIENTED_EDGE ( 'NONE', *, *, #238, .F. ) ;
#191 = UNCERTAINTY_MEASURE_WITH_UNIT (LENGTH_MEASURE( 1.000000000000000082E-05 ), #1, 'distance_accuracy_value', 'NONE');
#192 = DIRECTION ( 'NONE',  ( 1.000000000000000000, 0.000000000000000000, 0.000000000000000000 ) ) ;
#193 = ORIENTED_EDGE ( 'NONE', *, *, #278, .T. ) ;
#194 = CC_DESIGN_PERSON_AND_ORGANIZATION_ASSIGNMENT ( #203, #28, ( #27 ) ) ;
#195 = CARTESIAN_POINT ( 'NONE',  ( 4.000000000000000000, 4.898587196589412829E-16, 0.000000000000000000 ) ) ;
#196 = FACE_OUTER_BOUND ( 'NONE', #71, .T. ) ;
#197 = DIRECTION ( 'NONE',  ( -0.000000000000000000, -0.000000000000000000, -1.000000000000000000 ) ) ;
#198 = DIRECTION ( 'NONE',  ( -1.000000000000000000, 0.000000000000000000, 0.000000000000000000 ) ) ;
#199 = AXIS2_PLACEMENT_3D ( 'NONE', #52, #145, #242 ) ;
#200 = FACE_OUTER_BOUND ( 'NONE', #146, .T. ) ;
#201 = PLANE ( 'NONE',  #141 ) ;
#202 = PERSON_AND_ORGANIZATION ( #57, #186 ) ;
#203 = PERSON_AND_ORGANIZATION ( #57, #186 ) ;
#204 = CIRCLE ( 'NONE', #156, 0.2000000000000000944 ) ;
#205 = PERSON_AND_ORGANIZATION_ROLE ( 'creator' ) ;
#206 = VERTEX_POINT ( 'NONE', #18 ) ;
#207 = APPLICATION_PROTOCOL_DEFINITION ( 'international standard', 'config_control_design', 1994, #229 ) ;
#208 = AXIS2_PLACEMENT_3D ( 'NONE', #59, #219, #10 ) ;
#209 = ORIENTED_EDGE ( 'NONE', *, *, #93, .F. ) ;
#210 = PRODUCT_DEFINITION_SHAPE ( 'NONE', 'NONE',  #171 ) ;
#211 = ORIENTED_EDGE ( 'NONE', *, *, #166, .T. ) ;
#212 = APPROVAL ( #233, 'NEURÈENÝ' ) ;
#213 = ORIENTED_EDGE ( 'NONE', *, *, #268, .F. ) ;
#214 = APPROVAL_DATE_TIME ( #258, #212 ) ;
#215 = EDGE_LOOP ( 'NONE', ( #118, #211, #9, #213 ) ) ;
#216 = AXIS2_PLACEMENT_3D ( 'NONE', #289, #291, #77 ) ;
#217 = DIRECTION ( 'NONE',  ( 0.000000000000000000, 0.000000000000000000, 1.000000000000000000 ) ) ;
#218 = PRODUCT ( '6e32', '6e32', '', ( #237 ) ) ;
#219 = DIRECTION ( 'NONE',  ( 0.000000000000000000, 0.000000000000000000, 1.000000000000000000 ) ) ;
#220 = VERTEX_POINT ( 'NONE', #107 ) ;
#221 = DIRECTION ( 'NONE',  ( 1.000000000000000000, 0.000000000000000000, -0.000000000000000000 ) ) ;
#222 = AXIS2_PLACEMENT_3D ( 'NONE', #230, #29, #92 ) ;
#223 = ADVANCED_FACE ( 'NONE', ( #200 ), #125, .T. ) ;
#224 = CARTESIAN_POINT ( 'NONE',  ( 2.000000000000000000, 2.449293598294706414E-16, 3.199999999999980638 ) ) ;
#225 = CYLINDRICAL_SURFACE ( 'NONE', #147, 2.000000000000000000 ) ;
#226 = DIRECTION ( 'NONE',  ( -0.000000000000000000, -0.000000000000000000, -1.000000000000000000 ) ) ;
#227 = CC_DESIGN_PERSON_AND_ORGANIZATION_ASSIGNMENT ( #202, #205, ( #171 ) ) ;
#228 = FACE_OUTER_BOUND ( 'NONE', #234, .T. ) ;
#229 = APPLICATION_CONTEXT ( 'configuration controlled 3d designs of mechanical parts and assemblies' ) ;
#230 = CARTESIAN_POINT ( 'NONE',  ( 0.000000000000000000, 0.000000000000000000, 0.000000000000000000 ) ) ;
#231 = EDGE_LOOP ( 'NONE', ( #209, #245 ) ) ;
#232 = CIRCLE ( 'NONE', #85, 2.000000000000000000 ) ;
#233 = APPROVAL_STATUS ( 'not_yet_approved' ) ;
#234 = EDGE_LOOP ( 'NONE', ( #183, #187, #115, #256 ) ) ;
#235 = ADVANCED_FACE ( 'NONE', ( #228 ), #87, .T. ) ;
#236 = APPROVAL_ROLE ( '' ) ;
#237 = MECHANICAL_CONTEXT ( 'NONE', #164, 'mechanical' ) ;
#238 = EDGE_CURVE ( 'NONE', #305, #220, #281, .T. ) ;
#239 = EDGE_LOOP ( 'NONE', ( #6, #7 ) ) ;
#240 = VECTOR ( 'NONE', #197, 1000.000000000000000 ) ;
#241 = APPROVAL_PERSON_ORGANIZATION ( #68, #176, #49 ) ;
#242 = DIRECTION ( 'NONE',  ( -1.000000000000000000, 0.000000000000000000, 0.000000000000000000 ) ) ;
#243 = DIRECTION ( 'NONE',  ( 0.000000000000000000, 0.000000000000000000, 1.000000000000000000 ) ) ;
#244 = CC_DESIGN_PERSON_AND_ORGANIZATION_ASSIGNMENT ( #114, #180, ( #218 ) ) ;
#245 = ORIENTED_EDGE ( 'NONE', *, *, #17, .F. ) ;
#246 = ORIENTED_EDGE ( 'NONE', *, *, #300, .F. ) ;
#247 = CARTESIAN_POINT ( 'NONE',  ( -4.000000000000000000, 0.000000000000000000, 3.000000000000000000 ) ) ;
#248 = EDGE_CURVE ( 'NONE', #292, #305, #204, .T. ) ;
#249 = DIRECTION ( 'NONE',  ( 0.000000000000000000, 0.000000000000000000, 1.000000000000000000 ) ) ;
#250 = AXIS2_PLACEMENT_3D ( 'NONE', #178, #277, #14 ) ;
#251 = CARTESIAN_POINT ( 'NONE',  ( 0.000000000000000000, 0.000000000000000000, 3.199999999999980638 ) ) ;
#252 = CARTESIAN_POINT ( 'NONE',  ( 0.000000000000000000, 0.000000000000000000, 1002.999999999999886 ) ) ;
#253 = DIRECTION ( 'NONE',  ( -1.000000000000000000, 0.000000000000000000, 0.000000000000000000 ) ) ;
#254 = AXIS2_PLACEMENT_3D ( 'NONE', #251, #128, #272 ) ;
#255 = DATE_TIME_ROLE ( 'classification_date' ) ;
#256 = ORIENTED_EDGE ( 'NONE', *, *, #93, .T. ) ;
#257 = CIRCLE ( 'NONE', #19, 0.2000000000000000944 ) ;
#258 = DATE_AND_TIME ( #160, #78 ) ;
#259 = ORIENTED_EDGE ( 'NONE', *, *, #30, .F. ) ;
#260 =( GEOMETRIC_REPRESENTATION_CONTEXT ( 3 ) GLOBAL_UNCERTAINTY_ASSIGNED_CONTEXT ( ( #191 ) ) GLOBAL_UNIT_ASSIGNED_CONTEXT ( ( #1, #70, #113 ) ) REPRESENTATION_CONTEXT ( 'NONE', 'WORKASPACE' ) );
#261 = SECURITY_CLASSIFICATION ( '', '', #89 ) ;
#262 = DATE_AND_TIME ( #109, #103 ) ;
#263 = DATE_TIME_ROLE ( 'creation_date' ) ;
#264 = CARTESIAN_POINT ( 'NONE',  ( -2.000000000000000000, 0.000000000000000000, 3.199999999999980638 ) ) ;
#265 = VECTOR ( 'NONE', #273, 1000.000000000000000 ) ;
#266 = DIRECTION ( 'NONE',  ( -0.000000000000000000, -0.000000000000000000, -1.000000000000000000 ) ) ;
#267 = ORIENTED_EDGE ( 'NONE', *, *, #271, .F. ) ;
#268 = EDGE_CURVE ( 'NONE', #189, #12, #60, .T. ) ;
#269 = CARTESIAN_POINT ( 'NONE',  ( 0.000000000000000000, 0.000000000000000000, 3.199999999999980638 ) ) ;
#270 = CYLINDRICAL_SURFACE ( 'NONE', #199, 4.000000000000000000 ) ;
#271 = EDGE_CURVE ( 'NONE', #47, #50, #13, .T. ) ;
#272 = DIRECTION ( 'NONE',  ( 1.000000000000000000, 0.000000000000000000, 0.000000000000000000 ) ) ;
#273 = DIRECTION ( 'NONE',  ( -0.000000000000000000, -0.000000000000000000, -1.000000000000000000 ) ) ;
#274 = TOROIDAL_SURFACE ( 'NONE', #106, 2.200000000000000178, 0.2000000000000000111 ) ;
#275 = DIRECTION ( 'NONE',  ( 0.000000000000000000, 0.000000000000000000, 1.000000000000000000 ) ) ;
#276 = CIRCLE ( 'NONE', #306, 4.000000000000000000 ) ;
#277 = DIRECTION ( 'NONE',  ( -0.000000000000000000, -0.000000000000000000, -1.000000000000000000 ) ) ;
#278 = EDGE_CURVE ( 'NONE', #53, #292, #307, .T. ) ;
#279 = CARTESIAN_POINT ( 'NONE',  ( 0.000000000000000000, 0.000000000000000000, 3.000000000000000000 ) ) ;
#280 = PERSON_AND_ORGANIZATION ( #57, #186 ) ;
#281 = CIRCLE ( 'NONE', #250, 2.200000000000000178 ) ;
#282 = LOCAL_TIME ( 12, 24, 53.00000000000000000, #2 ) ;
#283 = ORIENTED_EDGE ( 'NONE', *, *, #83, .T. ) ;
#284 = APPROVAL_ROLE ( '' ) ;
#285 = CC_DESIGN_PERSON_AND_ORGANIZATION_ASSIGNMENT ( #21, #161, ( #27 ) ) ;
#286 = ORIENTED_EDGE ( 'NONE', *, *, #290, .T. ) ;
#287 = SHAPE_DEFINITION_REPRESENTATION ( #210, #3 ) ;
#288 = CARTESIAN_POINT ( 'NONE',  ( -4.000000000000000000, 0.000000000000000000, 0.000000000000000000 ) ) ;
#289 = CARTESIAN_POINT ( 'NONE',  ( 0.000000000000000000, 0.000000000000000000, 3.000000000000000000 ) ) ;
#290 = EDGE_CURVE ( 'NONE', #47, #292, #296, .T. ) ;
#291 = DIRECTION ( 'NONE',  ( -0.000000000000000000, -0.000000000000000000, -1.000000000000000000 ) ) ;
#292 = VERTEX_POINT ( 'NONE', #224 ) ;
#293 = CARTESIAN_POINT ( 'NONE',  ( 0.000000000000000000, 0.000000000000000000, 0.000000000000000000 ) ) ;
#294 = AXIS2_PLACEMENT_3D ( 'NONE', #299, #275, #133 ) ;
#295 = DIRECTION ( 'NONE',  ( 0.000000000000000000, 0.000000000000000000, 1.000000000000000000 ) ) ;
#296 = LINE ( 'NONE', #39, #265 ) ;
#297 = CARTESIAN_POINT ( 'NONE',  ( 0.000000000000000000, 0.000000000000000000, 3.000000000000000000 ) ) ;
#298 = VECTOR ( 'NONE', #34, 1000.000000000000000 ) ;
#299 = CARTESIAN_POINT ( 'NONE',  ( 0.000000000000000000, 0.000000000000000000, 1002.999999999999886 ) ) ;
#300 = EDGE_CURVE ( 'NONE', #292, #53, #177, .T. ) ;
#301 = DIRECTION ( 'NONE',  ( 1.000000000000000000, 0.000000000000000000, -0.000000000000000000 ) ) ;
#302 = DATE_AND_TIME ( #158, #282 ) ;
#303 = APPROVAL ( #185, 'NEURÈENÝ' ) ;
#304 = PERSON_AND_ORGANIZATION ( #57, #186 ) ;
#305 = VERTEX_POINT ( 'NONE', #131 ) ;
#306 = AXIS2_PLACEMENT_3D ( 'NONE', #279, #104, #105 ) ;
#307 = CIRCLE ( 'NONE', #58, 2.000000000000000000 ) ;
ENDSEC;
END-ISO-10303-21;
