ISO-10303-21;
HEADER;
FILE_DESCRIPTION (( 'STEP AP203' ),
    '1' );
FILE_NAME ('b353.STEP',
    '2022-07-07T09:31:52',
    ( '' ),
    ( '' ),
    'SwSTEP 2.0',
    'SolidWorks 2019',
    '' );
FILE_SCHEMA (( 'CONFIG_CONTROL_DESIGN' ));
ENDSEC;

DATA;
#1 = ADVANCED_FACE ( 'NONE', ( #60 ), #295, .T. ) ;
#2 = COORDINATED_UNIVERSAL_TIME_OFFSET ( 1, 0, .AHEAD. ) ;
#3 = ORIENTED_EDGE ( 'NONE', *, *, #67, .T. ) ;
#4 = TOROIDAL_SURFACE ( 'NONE', #116, 12.70000000000000107, 0.2000000000000000111 ) ;
#5 = APPROVAL_DATE_TIME ( #77, #15 ) ;
#6 = ORIENTED_EDGE ( 'NONE', *, *, #169, .F. ) ;
#7 = CARTESIAN_POINT ( 'NONE',  ( -16.00000000000000000, 0.000000000000000000, 0.000000000000000000 ) ) ;
#8 = DIRECTION ( 'NONE',  ( -1.000000000000000000, 0.000000000000000000, 0.000000000000000000 ) ) ;
#9 = PRODUCT_DEFINITION ( 'NEZNÁMÝ', '', #190, #266 ) ;
#10 = ORIENTED_EDGE ( 'NONE', *, *, #41, .F. ) ;
#11 = ORIENTED_EDGE ( 'NONE', *, *, #107, .F. ) ;
#12 = AXIS2_PLACEMENT_3D ( 'NONE', #40, #276, #252 ) ;
#13 = FACE_OUTER_BOUND ( 'NONE', #196, .T. ) ;
#14 = CIRCLE ( 'NONE', #285, 12.70000000000000107 ) ;
#15 = APPROVAL ( #47, 'NEURÈENÝ' ) ;
#16 = DIRECTION ( 'NONE',  ( 0.000000000000000000, 0.000000000000000000, 1.000000000000000000 ) ) ;
#17 = DIRECTION ( 'NONE',  ( 0.000000000000000000, 0.000000000000000000, 1.000000000000000000 ) ) ;
#18 = CARTESIAN_POINT ( 'NONE',  ( 0.000000000000000000, 0.000000000000000000, 10.00000000000000000 ) ) ;
#19 = APPLICATION_CONTEXT ( 'configuration controlled 3d designs of mechanical parts and assemblies' ) ;
#20 = VECTOR ( 'NONE', #255, 1000.000000000000000 ) ;
#21 = CARTESIAN_POINT ( 'NONE',  ( -12.70000000000000107, 1.555301434917138630E-15, 10.19999999999998685 ) ) ;
#22 = DATE_AND_TIME ( #50, #125 ) ;
#23 = CC_DESIGN_APPROVAL ( #15, ( #9 ) ) ;
#24 = APPROVAL_ROLE ( '' ) ;
#25 = EDGE_LOOP ( 'NONE', ( #79, #258, #75, #29 ) ) ;
#26 = PERSON_AND_ORGANIZATION ( #30, #239 ) ;
#27 =( LENGTH_UNIT ( ) NAMED_UNIT ( * ) SI_UNIT ( .MILLI., .METRE. ) );
#28 = CIRCLE ( 'NONE', #99, 0.2000000000000005107 ) ;
#29 = ORIENTED_EDGE ( 'NONE', *, *, #178, .F. ) ;
#30 = PERSON ( 'NEURÈENÝ', 'NEURÈENÝ', 'NEURÈENÝ', ('NEURÈENÝ'), ('NEURÈENÝ'), ('NEURÈENÝ') ) ;
#31 = CARTESIAN_POINT ( 'NONE',  ( 0.000000000000000000, 0.000000000000000000, 10.00000000000000000 ) ) ;
#32 = CIRCLE ( 'NONE', #158, 0.2000000000000005107 ) ;
#33 = ORIENTED_EDGE ( 'NONE', *, *, #244, .F. ) ;
#34 = DIRECTION ( 'NONE',  ( 1.000000000000000000, 0.000000000000000000, 0.000000000000000000 ) ) ;
#35 = ADVANCED_FACE ( 'NONE', ( #55, #106 ), #202, .T. ) ;
#36 = ORIENTED_EDGE ( 'NONE', *, *, #219, .T. ) ;
#37 = VECTOR ( 'NONE', #38, 1000.000000000000000 ) ;
#38 = DIRECTION ( 'NONE',  ( -0.000000000000000000, -0.000000000000000000, -1.000000000000000000 ) ) ;
#39 = DIRECTION ( 'NONE',  ( 0.000000000000000000, 0.000000000000000000, 1.000000000000000000 ) ) ;
#40 = CARTESIAN_POINT ( 'NONE',  ( 0.000000000000000000, 0.000000000000000000, 10.00000000000000000 ) ) ;
#41 = EDGE_CURVE ( 'NONE', #269, #87, #108, .T. ) ;
#42 = CARTESIAN_POINT ( 'NONE',  ( 0.000000000000000000, 0.000000000000000000, 260.0000000000000000 ) ) ;
#43 = AXIS2_PLACEMENT_3D ( 'NONE', #290, #271, #160 ) ;
#44 = DIRECTION ( 'NONE',  ( 1.000000000000000000, 0.000000000000000000, 0.000000000000000000 ) ) ;
#45 = EDGE_CURVE ( 'NONE', #260, #87, #301, .T. ) ;
#46 = EDGE_LOOP ( 'NONE', ( #6, #58 ) ) ;
#47 = APPROVAL_STATUS ( 'not_yet_approved' ) ;
#48 = VERTEX_POINT ( 'NONE', #245 ) ;
#49 = AXIS2_PLACEMENT_3D ( 'NONE', #251, #91, #209 ) ;
#50 = CALENDAR_DATE ( 2022, 7, 7 ) ;
#51 = ORIENTED_EDGE ( 'NONE', *, *, #169, .T. ) ;
#52 = CC_DESIGN_PERSON_AND_ORGANIZATION_ASSIGNMENT ( #168, #281, ( #190 ) ) ;
#53 = DIRECTION ( 'NONE',  ( 0.000000000000000000, 0.000000000000000000, 1.000000000000000000 ) ) ;
#54 = EDGE_LOOP ( 'NONE', ( #109, #287 ) ) ;
#55 = FACE_BOUND ( 'NONE', #123, .T. ) ;
#56 = ADVANCED_FACE ( 'NONE', ( #13 ), #132, .T. ) ;
#57 = VERTEX_POINT ( 'NONE', #246 ) ;
#58 = ORIENTED_EDGE ( 'NONE', *, *, #45, .F. ) ;
#59 = AXIS2_PLACEMENT_3D ( 'NONE', #71, #53, #94 ) ;
#60 = FACE_OUTER_BOUND ( 'NONE', #256, .T. ) ;
#61 = CALENDAR_DATE ( 2022, 7, 7 ) ;
#62 = CARTESIAN_POINT ( 'NONE',  ( 0.000000000000000000, 0.000000000000000000, 10.00000000000000000 ) ) ;
#63 = DIRECTION ( 'NONE',  ( 1.000000000000000000, 0.000000000000000000, 0.000000000000000000 ) ) ;
#64 = AXIS2_PLACEMENT_3D ( 'NONE', #42, #231, #275 ) ;
#65 = DIRECTION ( 'NONE',  ( 0.000000000000000000, 0.000000000000000000, 1.000000000000000000 ) ) ;
#66 = DIRECTION ( 'NONE',  ( 1.000000000000000000, 0.000000000000000000, 0.000000000000000000 ) ) ;
#67 = EDGE_CURVE ( 'NONE', #57, #294, #76, .T. ) ;
#68 = LINE ( 'NONE', #248, #296 ) ;
#69 = DIRECTION ( 'NONE',  ( -0.000000000000000000, -0.000000000000000000, -1.000000000000000000 ) ) ;
#70 = ADVANCED_FACE ( 'NONE', ( #199 ), #174, .T. ) ;
#71 = CARTESIAN_POINT ( 'NONE',  ( 0.000000000000000000, 0.000000000000000000, 0.000000000000000000 ) ) ;
#72 = PERSON_AND_ORGANIZATION_ROLE ( 'design_supplier' ) ;
#73 = ORIENTED_EDGE ( 'NONE', *, *, #121, .F. ) ;
#74 = PERSON_AND_ORGANIZATION ( #30, #239 ) ;
#75 = ORIENTED_EDGE ( 'NONE', *, *, #250, .F. ) ;
#76 = CIRCLE ( 'NONE', #80, 12.50000000000000000 ) ;
#77 = DATE_AND_TIME ( #216, #110 ) ;
#78 = COORDINATED_UNIVERSAL_TIME_OFFSET ( 1, 0, .AHEAD. ) ;
#79 = ORIENTED_EDGE ( 'NONE', *, *, #67, .F. ) ;
#80 = AXIS2_PLACEMENT_3D ( 'NONE', #133, #225, #241 ) ;
#81 = ORIENTED_EDGE ( 'NONE', *, *, #178, .T. ) ;
#82 = DIRECTION ( 'NONE',  ( 0.000000000000000000, 0.000000000000000000, 1.000000000000000000 ) ) ;
#83 = EDGE_LOOP ( 'NONE', ( #33, #127, #81, #101 ) ) ;
#84 = CLOSED_SHELL ( 'NONE', ( #161, #56, #103, #1, #35, #182, #229, #70, #147 ) ) ;
#85 = PRODUCT ( 'b353', 'b353', '', ( #145 ) ) ;
#86 =( GEOMETRIC_REPRESENTATION_CONTEXT ( 3 ) GLOBAL_UNCERTAINTY_ASSIGNED_CONTEXT ( ( #200 ) ) GLOBAL_UNIT_ASSIGNED_CONTEXT ( ( #27, #279, #148 ) ) REPRESENTATION_CONTEXT ( 'NONE', 'WORKASPACE' ) );
#87 = VERTEX_POINT ( 'NONE', #7 ) ;
#88 = CARTESIAN_POINT ( 'NONE',  ( 0.000000000000000000, 0.000000000000000000, 10.00000000000000000 ) ) ;
#89 = DIRECTION ( 'NONE',  ( 1.000000000000000000, 0.000000000000000000, 0.000000000000000000 ) ) ;
#90 = AXIS2_PLACEMENT_3D ( 'NONE', #297, #39, #210 ) ;
#91 = DIRECTION ( 'NONE',  ( 0.000000000000000000, 0.000000000000000000, 1.000000000000000000 ) ) ;
#92 = FACE_OUTER_BOUND ( 'NONE', #46, .T. ) ;
#93 = CARTESIAN_POINT ( 'NONE',  ( 16.00000000000000000, 1.959434878635765131E-15, 10.00000000000000000 ) ) ;
#94 = DIRECTION ( 'NONE',  ( 1.000000000000000000, 0.000000000000000000, 0.000000000000000000 ) ) ;
#95 = APPROVAL_PERSON_ORGANIZATION ( #97, #15, #149 ) ;
#96 = APPLICATION_CONTEXT ( 'configuration controlled 3d designs of mechanical parts and assemblies' ) ;
#97 = PERSON_AND_ORGANIZATION ( #30, #239 ) ;
#98 = ORIENTED_EDGE ( 'NONE', *, *, #289, .F. ) ;
#99 = AXIS2_PLACEMENT_3D ( 'NONE', #188, #165, #299 ) ;
#100 = DATE_AND_TIME ( #214, #270 ) ;
#101 = ORIENTED_EDGE ( 'NONE', *, *, #195, .F. ) ;
#102 = ORIENTED_EDGE ( 'NONE', *, *, #121, .T. ) ;
#103 = ADVANCED_FACE ( 'NONE', ( #201 ), #155, .T. ) ;
#104 = DIRECTION ( 'NONE',  ( -0.000000000000000000, -0.000000000000000000, -1.000000000000000000 ) ) ;
#105 = CIRCLE ( 'NONE', #12, 12.70000000000000107 ) ;
#106 = FACE_OUTER_BOUND ( 'NONE', #54, .T. ) ;
#107 = EDGE_CURVE ( 'NONE', #215, #260, #137, .T. ) ;
#108 = LINE ( 'NONE', #159, #157 ) ;
#109 = ORIENTED_EDGE ( 'NONE', *, *, #126, .T. ) ;
#110 = LOCAL_TIME ( 11, 31, 52.00000000000000000, #119 ) ;
#111 = DIRECTION ( 'NONE',  ( 0.000000000000000000, 0.000000000000000000, 1.000000000000000000 ) ) ;
#112 = DIRECTION ( 'NONE',  ( 0.000000000000000000, 0.000000000000000000, 1.000000000000000000 ) ) ;
#113 = APPROVAL ( #288, 'NEURÈENÝ' ) ;
#114 = CARTESIAN_POINT ( 'NONE',  ( 0.000000000000000000, 0.000000000000000000, 0.000000000000000000 ) ) ;
#115 = AXIS2_PLACEMENT_3D ( 'NONE', #62, #131, #222 ) ;
#116 = AXIS2_PLACEMENT_3D ( 'NONE', #187, #17, #118 ) ;
#117 = DIRECTION ( 'NONE',  ( -1.000000000000000000, 1.224646799147353207E-16, 0.000000000000000000 ) ) ;
#118 = DIRECTION ( 'NONE',  ( 1.000000000000000000, 0.000000000000000000, 0.000000000000000000 ) ) ;
#119 = COORDINATED_UNIVERSAL_TIME_OFFSET ( 1, 0, .AHEAD. ) ;
#120 = VERTEX_POINT ( 'NONE', #167 ) ;
#121 = EDGE_CURVE ( 'NONE', #198, #294, #68, .T. ) ;
#122 = APPROVAL_ROLE ( '' ) ;
#123 = EDGE_LOOP ( 'NONE', ( #203, #268 ) ) ;
#124 = ORIENTED_EDGE ( 'NONE', *, *, #45, .T. ) ;
#125 = LOCAL_TIME ( 11, 31, 52.00000000000000000, #257 ) ;
#126 = EDGE_CURVE ( 'NONE', #269, #215, #166, .T. ) ;
#127 = ORIENTED_EDGE ( 'NONE', *, *, #233, .F. ) ;
#128 = DATE_AND_TIME ( #61, #175 ) ;
#129 = ORIENTED_EDGE ( 'NONE', *, *, #219, .F. ) ;
#130 = TOROIDAL_SURFACE ( 'NONE', #90, 12.70000000000000107, 0.2000000000000000111 ) ;
#131 = DIRECTION ( 'NONE',  ( 0.000000000000000000, 0.000000000000000000, 1.000000000000000000 ) ) ;
#132 = CYLINDRICAL_SURFACE ( 'NONE', #43, 12.50000000000000000 ) ;
#133 = CARTESIAN_POINT ( 'NONE',  ( 0.000000000000000000, 0.000000000000000000, 10.19999999999998685 ) ) ;
#134 = SECURITY_CLASSIFICATION ( '', '', #282 ) ;
#135 = DIRECTION ( 'NONE',  ( 0.000000000000000000, 0.000000000000000000, 1.000000000000000000 ) ) ;
#136 = APPROVAL ( #211, 'NEURÈENÝ' ) ;
#137 = LINE ( 'NONE', #93, #37 ) ;
#138 = CARTESIAN_POINT ( 'NONE',  ( -12.70000000000000107, 1.555301434917138630E-15, 9.999999999999992895 ) ) ;
#139 = APPROVAL_PERSON_ORGANIZATION ( #197, #113, #24 ) ;
#140 = CYLINDRICAL_SURFACE ( 'NONE', #64, 12.50000000000000000 ) ;
#141 = CARTESIAN_POINT ( 'NONE',  ( 12.50000000000000000, 1.530808498934191521E-15, 260.0000000000000000 ) ) ;
#142 = ADVANCED_BREP_SHAPE_REPRESENTATION ( 'b353', ( #235, #59 ), #86 ) ;
#143 = APPLICATION_PROTOCOL_DEFINITION ( 'international standard', 'config_control_design', 1994, #19 ) ;
#144 = ORIENTED_EDGE ( 'NONE', *, *, #126, .F. ) ;
#145 = MECHANICAL_CONTEXT ( 'NONE', #96, 'mechanical' ) ;
#146 = AXIS2_PLACEMENT_3D ( 'NONE', #114, #135, #249 ) ;
#147 = ADVANCED_FACE ( 'NONE', ( #206 ), #4, .F. ) ;
#148 =( NAMED_UNIT ( * ) SI_UNIT ( $, .STERADIAN. ) SOLID_ANGLE_UNIT ( ) );
#149 = APPROVAL_ROLE ( '' ) ;
#150 = PRODUCT_RELATED_PRODUCT_CATEGORY ( 'detail', '', ( #85 ) ) ;
#151 = DATE_TIME_ROLE ( 'classification_date' ) ;
#152 = AXIS2_PLACEMENT_3D ( 'NONE', #186, #111, #227 ) ;
#153 = DIRECTION ( 'NONE',  ( 0.000000000000000000, 0.000000000000000000, 1.000000000000000000 ) ) ;
#154 = SHAPE_DEFINITION_REPRESENTATION ( #247, #142 ) ;
#155 = CYLINDRICAL_SURFACE ( 'NONE', #278, 16.00000000000000000 ) ;
#156 = ORIENTED_EDGE ( 'NONE', *, *, #233, .T. ) ;
#157 = VECTOR ( 'NONE', #293, 1000.000000000000000 ) ;
#158 = AXIS2_PLACEMENT_3D ( 'NONE', #21, #277, #117 ) ;
#159 = CARTESIAN_POINT ( 'NONE',  ( -16.00000000000000000, 0.000000000000000000, 10.00000000000000000 ) ) ;
#160 = DIRECTION ( 'NONE',  ( -1.000000000000000000, 0.000000000000000000, 0.000000000000000000 ) ) ;
#161 = ADVANCED_FACE ( 'NONE', ( #304 ), #130, .F. ) ;
#162 = CARTESIAN_POINT ( 'NONE',  ( 0.000000000000000000, 0.000000000000000000, 260.0000000000000000 ) ) ;
#163 = CIRCLE ( 'NONE', #226, 12.50000000000000000 ) ;
#164 = LINE ( 'NONE', #172, #20 ) ;
#165 = DIRECTION ( 'NONE',  ( 0.000000000000000000, -1.000000000000000000, 0.000000000000000000 ) ) ;
#166 = CIRCLE ( 'NONE', #49, 16.00000000000000000 ) ;
#167 = CARTESIAN_POINT ( 'NONE',  ( 12.70000000000000107, 0.000000000000000000, 9.999999999999992895 ) ) ;
#168 = PERSON_AND_ORGANIZATION ( #30, #239 ) ;
#169 = EDGE_CURVE ( 'NONE', #87, #260, #291, .T. ) ;
#170 = ORIENTED_EDGE ( 'NONE', *, *, #107, .T. ) ;
#171 = PERSON_AND_ORGANIZATION_ROLE ( 'creator' ) ;
#172 = CARTESIAN_POINT ( 'NONE',  ( -12.50000000000000000, 0.000000000000000000, 260.0000000000000000 ) ) ;
#173 = PERSON_AND_ORGANIZATION ( #30, #239 ) ;
#174 = PLANE ( 'NONE',  #208 ) ;
#175 = LOCAL_TIME ( 11, 31, 52.00000000000000000, #2 ) ;
#176 = APPROVAL_DATE_TIME ( #128, #136 ) ;
#177 = DIRECTION ( 'NONE',  ( -0.000000000000000000, -0.000000000000000000, -1.000000000000000000 ) ) ;
#178 = EDGE_CURVE ( 'NONE', #294, #120, #28, .T. ) ;
#179 = ORIENTED_EDGE ( 'NONE', *, *, #289, .T. ) ;
#180 = ORIENTED_EDGE ( 'NONE', *, *, #283, .F. ) ;
#181 = CARTESIAN_POINT ( 'NONE',  ( 0.000000000000000000, 0.000000000000000000, 0.000000000000000000 ) ) ;
#182 = ADVANCED_FACE ( 'NONE', ( #92 ), #228, .F. ) ;
#183 = CARTESIAN_POINT ( 'NONE',  ( 16.00000000000000000, 1.959434878635765131E-15, 0.000000000000000000 ) ) ;
#184 = FACE_OUTER_BOUND ( 'NONE', #242, .T. ) ;
#185 = AXIS2_PLACEMENT_3D ( 'NONE', #181, #82, #34 ) ;
#186 = CARTESIAN_POINT ( 'NONE',  ( 0.000000000000000000, 0.000000000000000000, 10.19999999999998685 ) ) ;
#187 = CARTESIAN_POINT ( 'NONE',  ( 0.000000000000000000, 0.000000000000000000, 10.19999999999998685 ) ) ;
#188 = CARTESIAN_POINT ( 'NONE',  ( 12.70000000000000107, 0.000000000000000000, 10.19999999999998685 ) ) ;
#189 = AXIS2_PLACEMENT_3D ( 'NONE', #254, #302, #44 ) ;
#190 = PRODUCT_DEFINITION_FORMATION_WITH_SPECIFIED_SOURCE ( 'LIBOVOLNÝ', '', #85, .NOT_KNOWN. ) ;
#191 = CC_DESIGN_PERSON_AND_ORGANIZATION_ASSIGNMENT ( #74, #262, ( #134 ) ) ;
#192 = PERSON_AND_ORGANIZATION ( #30, #239 ) ;
#193 = APPROVAL_DATE_TIME ( #307, #113 ) ;
#194 = CIRCLE ( 'NONE', #205, 16.00000000000000000 ) ;
#195 = EDGE_CURVE ( 'NONE', #261, #120, #105, .T. ) ;
#196 = EDGE_LOOP ( 'NONE', ( #129, #102, #156, #238 ) ) ;
#197 = PERSON_AND_ORGANIZATION ( #30, #239 ) ;
#198 = VERTEX_POINT ( 'NONE', #141 ) ;
#199 = FACE_OUTER_BOUND ( 'NONE', #224, .T. ) ;
#200 = UNCERTAINTY_MEASURE_WITH_UNIT (LENGTH_MEASURE( 1.000000000000000082E-05 ), #27, 'distance_accuracy_value', 'NONE');
#201 = FACE_OUTER_BOUND ( 'NONE', #220, .T. ) ;
#202 = PLANE ( 'NONE',  #115 ) ;
#203 = ORIENTED_EDGE ( 'NONE', *, *, #250, .T. ) ;
#204 = ORIENTED_EDGE ( 'NONE', *, *, #41, .T. ) ;
#205 = AXIS2_PLACEMENT_3D ( 'NONE', #18, #16, #63 ) ;
#206 = FACE_OUTER_BOUND ( 'NONE', #83, .T. ) ;
#207 = DIRECTION ( 'NONE',  ( -0.000000000000000000, -0.000000000000000000, -1.000000000000000000 ) ) ;
#208 = AXIS2_PLACEMENT_3D ( 'NONE', #265, #153, #218 ) ;
#209 = DIRECTION ( 'NONE',  ( 1.000000000000000000, 0.000000000000000000, 0.000000000000000000 ) ) ;
#210 = DIRECTION ( 'NONE',  ( 1.000000000000000000, 0.000000000000000000, 0.000000000000000000 ) ) ;
#211 = APPROVAL_STATUS ( 'not_yet_approved' ) ;
#212 = CC_DESIGN_DATE_AND_TIME_ASSIGNMENT ( #22, #151, ( #134 ) ) ;
#213 = CC_DESIGN_APPROVAL ( #136, ( #134 ) ) ;
#214 = CALENDAR_DATE ( 2022, 7, 7 ) ;
#215 = VERTEX_POINT ( 'NONE', #300 ) ;
#216 = CALENDAR_DATE ( 2022, 7, 7 ) ;
#217 = CIRCLE ( 'NONE', #152, 12.50000000000000000 ) ;
#218 = DIRECTION ( 'NONE',  ( 1.000000000000000000, 0.000000000000000000, -0.000000000000000000 ) ) ;
#219 = EDGE_CURVE ( 'NONE', #198, #48, #163, .T. ) ;
#220 = EDGE_LOOP ( 'NONE', ( #180, #170, #124, #10 ) ) ;
#221 = AXIS2_PLACEMENT_3D ( 'NONE', #162, #112, #89 ) ;
#222 = DIRECTION ( 'NONE',  ( 1.000000000000000000, 0.000000000000000000, -0.000000000000000000 ) ) ;
#223 = CC_DESIGN_DATE_AND_TIME_ASSIGNMENT ( #100, #237, ( #9 ) ) ;
#224 = EDGE_LOOP ( 'NONE', ( #179, #36 ) ) ;
#225 = DIRECTION ( 'NONE',  ( 0.000000000000000000, 0.000000000000000000, 1.000000000000000000 ) ) ;
#226 = AXIS2_PLACEMENT_3D ( 'NONE', #232, #65, #230 ) ;
#227 = DIRECTION ( 'NONE',  ( 1.000000000000000000, 0.000000000000000000, 0.000000000000000000 ) ) ;
#228 = PLANE ( 'NONE',  #146 ) ;
#229 = ADVANCED_FACE ( 'NONE', ( #184 ), #140, .T. ) ;
#230 = DIRECTION ( 'NONE',  ( 1.000000000000000000, 0.000000000000000000, 0.000000000000000000 ) ) ;
#231 = DIRECTION ( 'NONE',  ( -0.000000000000000000, -0.000000000000000000, -1.000000000000000000 ) ) ;
#232 = CARTESIAN_POINT ( 'NONE',  ( 0.000000000000000000, 0.000000000000000000, 260.0000000000000000 ) ) ;
#233 = EDGE_CURVE ( 'NONE', #294, #57, #217, .T. ) ;
#234 = PERSON_AND_ORGANIZATION ( #30, #239 ) ;
#235 = MANIFOLD_SOLID_BREP ( 'Zaoblit1', #84 ) ;
#236 = APPLICATION_PROTOCOL_DEFINITION ( 'international standard', 'config_control_design', 1994, #96 ) ;
#237 = DATE_TIME_ROLE ( 'creation_date' ) ;
#238 = ORIENTED_EDGE ( 'NONE', *, *, #298, .F. ) ;
#239 = ORGANIZATION ( 'NEURÈENÝ', 'NEURÈENÝ', '' ) ;
#240 = CC_DESIGN_PERSON_AND_ORGANIZATION_ASSIGNMENT ( #192, #305, ( #85 ) ) ;
#241 = DIRECTION ( 'NONE',  ( 1.000000000000000000, 0.000000000000000000, 0.000000000000000000 ) ) ;
#242 = EDGE_LOOP ( 'NONE', ( #73, #98, #280, #3 ) ) ;
#243 = CIRCLE ( 'NONE', #221, 12.50000000000000000 ) ;
#244 = EDGE_CURVE ( 'NONE', #57, #261, #32, .T. ) ;
#245 = CARTESIAN_POINT ( 'NONE',  ( -12.50000000000000000, 0.000000000000000000, 260.0000000000000000 ) ) ;
#246 = CARTESIAN_POINT ( 'NONE',  ( -12.50000000000000000, 0.000000000000000000, 10.19999999999998685 ) ) ;
#247 = PRODUCT_DEFINITION_SHAPE ( 'NONE', 'NONE',  #9 ) ;
#248 = CARTESIAN_POINT ( 'NONE',  ( 12.50000000000000000, 1.530808498934191521E-15, 260.0000000000000000 ) ) ;
#249 = DIRECTION ( 'NONE',  ( 1.000000000000000000, 0.000000000000000000, -0.000000000000000000 ) ) ;
#250 = EDGE_CURVE ( 'NONE', #120, #261, #14, .T. ) ;
#251 = CARTESIAN_POINT ( 'NONE',  ( 0.000000000000000000, 0.000000000000000000, 10.00000000000000000 ) ) ;
#252 = DIRECTION ( 'NONE',  ( 1.000000000000000000, 0.000000000000000000, 0.000000000000000000 ) ) ;
#253 = LOCAL_TIME ( 11, 31, 52.00000000000000000, #78 ) ;
#254 = CARTESIAN_POINT ( 'NONE',  ( 0.000000000000000000, 0.000000000000000000, 0.000000000000000000 ) ) ;
#255 = DIRECTION ( 'NONE',  ( -0.000000000000000000, -0.000000000000000000, -1.000000000000000000 ) ) ;
#256 = EDGE_LOOP ( 'NONE', ( #11, #144, #204, #51 ) ) ;
#257 = COORDINATED_UNIVERSAL_TIME_OFFSET ( 1, 0, .AHEAD. ) ;
#258 = ORIENTED_EDGE ( 'NONE', *, *, #244, .T. ) ;
#259 = CALENDAR_DATE ( 2022, 7, 7 ) ;
#260 = VERTEX_POINT ( 'NONE', #183 ) ;
#261 = VERTEX_POINT ( 'NONE', #138 ) ;
#262 = PERSON_AND_ORGANIZATION_ROLE ( 'classification_officer' ) ;
#263 = CC_DESIGN_PERSON_AND_ORGANIZATION_ASSIGNMENT ( #234, #171, ( #9 ) ) ;
#264 = CC_DESIGN_APPROVAL ( #113, ( #190 ) ) ;
#265 = CARTESIAN_POINT ( 'NONE',  ( 0.000000000000000000, 0.000000000000000000, 260.0000000000000000 ) ) ;
#266 = DESIGN_CONTEXT ( 'detailed design', #19, 'design' ) ;
#267 = DIRECTION ( 'NONE',  ( -1.000000000000000000, 0.000000000000000000, 0.000000000000000000 ) ) ;
#268 = ORIENTED_EDGE ( 'NONE', *, *, #195, .T. ) ;
#269 = VERTEX_POINT ( 'NONE', #272 ) ;
#270 = LOCAL_TIME ( 11, 31, 52.00000000000000000, #286 ) ;
#271 = DIRECTION ( 'NONE',  ( -0.000000000000000000, -0.000000000000000000, -1.000000000000000000 ) ) ;
#272 = CARTESIAN_POINT ( 'NONE',  ( -16.00000000000000000, 0.000000000000000000, 10.00000000000000000 ) ) ;
#273 = CARTESIAN_POINT ( 'NONE',  ( 12.50000000000000000, 1.530808498934191521E-15, 10.19999999999998685 ) ) ;
#274 = CC_DESIGN_SECURITY_CLASSIFICATION ( #134, ( #190 ) ) ;
#275 = DIRECTION ( 'NONE',  ( -1.000000000000000000, 0.000000000000000000, 0.000000000000000000 ) ) ;
#276 = DIRECTION ( 'NONE',  ( -0.000000000000000000, -0.000000000000000000, -1.000000000000000000 ) ) ;
#277 = DIRECTION ( 'NONE',  ( 1.224646799147353207E-16, 1.000000000000000000, -0.000000000000000000 ) ) ;
#278 = AXIS2_PLACEMENT_3D ( 'NONE', #292, #177, #267 ) ;
#279 =( NAMED_UNIT ( * ) PLANE_ANGLE_UNIT ( ) SI_UNIT ( $, .RADIAN. ) );
#280 = ORIENTED_EDGE ( 'NONE', *, *, #298, .T. ) ;
#281 = PERSON_AND_ORGANIZATION_ROLE ( 'creator' ) ;
#282 = SECURITY_CLASSIFICATION_LEVEL ( 'unclassified' ) ;
#283 = EDGE_CURVE ( 'NONE', #215, #269, #194, .T. ) ;
#284 = AXIS2_PLACEMENT_3D ( 'NONE', #31, #104, #8 ) ;
#285 = AXIS2_PLACEMENT_3D ( 'NONE', #88, #69, #66 ) ;
#286 = COORDINATED_UNIVERSAL_TIME_OFFSET ( 1, 0, .AHEAD. ) ;
#287 = ORIENTED_EDGE ( 'NONE', *, *, #283, .T. ) ;
#288 = APPROVAL_STATUS ( 'not_yet_approved' ) ;
#289 = EDGE_CURVE ( 'NONE', #48, #198, #243, .T. ) ;
#290 = CARTESIAN_POINT ( 'NONE',  ( 0.000000000000000000, 0.000000000000000000, 260.0000000000000000 ) ) ;
#291 = CIRCLE ( 'NONE', #189, 16.00000000000000000 ) ;
#292 = CARTESIAN_POINT ( 'NONE',  ( 0.000000000000000000, 0.000000000000000000, 10.00000000000000000 ) ) ;
#293 = DIRECTION ( 'NONE',  ( -0.000000000000000000, -0.000000000000000000, -1.000000000000000000 ) ) ;
#294 = VERTEX_POINT ( 'NONE', #273 ) ;
#295 = CYLINDRICAL_SURFACE ( 'NONE', #284, 16.00000000000000000 ) ;
#296 = VECTOR ( 'NONE', #207, 1000.000000000000000 ) ;
#297 = CARTESIAN_POINT ( 'NONE',  ( 0.000000000000000000, 0.000000000000000000, 10.19999999999998685 ) ) ;
#298 = EDGE_CURVE ( 'NONE', #48, #57, #164, .T. ) ;
#299 = DIRECTION ( 'NONE',  ( 0.000000000000000000, 0.000000000000000000, -1.000000000000000000 ) ) ;
#300 = CARTESIAN_POINT ( 'NONE',  ( 16.00000000000000000, 1.959434878635765131E-15, 10.00000000000000000 ) ) ;
#301 = CIRCLE ( 'NONE', #185, 16.00000000000000000 ) ;
#302 = DIRECTION ( 'NONE',  ( 0.000000000000000000, 0.000000000000000000, 1.000000000000000000 ) ) ;
#303 = CC_DESIGN_PERSON_AND_ORGANIZATION_ASSIGNMENT ( #173, #72, ( #190 ) ) ;
#304 = FACE_OUTER_BOUND ( 'NONE', #25, .T. ) ;
#305 = PERSON_AND_ORGANIZATION_ROLE ( 'design_owner' ) ;
#306 = APPROVAL_PERSON_ORGANIZATION ( #26, #136, #122 ) ;
#307 = DATE_AND_TIME ( #259, #253 ) ;
ENDSEC;
END-ISO-10303-21;
