ISO-10303-21;
HEADER;
FILE_DESCRIPTION (( 'STEP AP203' ),
    '1' );
FILE_NAME ('0914.STEP',
    '2022-07-07T09:47:12',
    ( '' ),
    ( '' ),
    'SwSTEP 2.0',
    'SolidWorks 2019',
    '' );
FILE_SCHEMA (( 'CONFIG_CONTROL_DESIGN' ));
ENDSEC;

DATA;
#1 = DATE_AND_TIME ( #180, #187 ) ;
#2 = CIRCLE ( 'NONE', #67, 6.000000000000000888 ) ;
#3 = DIRECTION ( 'NONE',  ( 0.000000000000000000, 0.000000000000000000, 1.000000000000000000 ) ) ;
#4 = ORIENTED_EDGE ( 'NONE', *, *, #276, .F. ) ;
#5 = CARTESIAN_POINT ( 'NONE',  ( 6.000000000000000888, 7.347880794884120722E-16, 7.199999999999998401 ) ) ;
#6 = APPROVAL ( #130, 'NEURÈENÝ' ) ;
#7 = CARTESIAN_POINT ( 'NONE',  ( 9.000000000000000000, 1.102182119232617714E-15, 7.000000000000000000 ) ) ;
#8 = ORIENTED_EDGE ( 'NONE', *, *, #21, .F. ) ;
#9 = CARTESIAN_POINT ( 'NONE',  ( 0.000000000000000000, 0.000000000000000000, 7.000000000000000000 ) ) ;
#10 = DIRECTION ( 'NONE',  ( 1.000000000000000000, 0.000000000000000000, -0.000000000000000000 ) ) ;
#11 = ORIENTED_EDGE ( 'NONE', *, *, #222, .F. ) ;
#12 = CLOSED_SHELL ( 'NONE', ( #206, #50, #283, #113, #89, #91, #208, #26, #105 ) ) ;
#13 = DIRECTION ( 'NONE',  ( -0.000000000000000000, -0.000000000000000000, -1.000000000000000000 ) ) ;
#14 = ORIENTED_EDGE ( 'NONE', *, *, #284, .T. ) ;
#15 = TOROIDAL_SURFACE ( 'NONE', #56, 6.200000000000001066, 0.2000000000000000111 ) ;
#16 = DIRECTION ( 'NONE',  ( 1.000000000000000000, 0.000000000000000000, 0.000000000000000000 ) ) ;
#17 = VERTEX_POINT ( 'NONE', #246 ) ;
#18 = PERSON_AND_ORGANIZATION_ROLE ( 'creator' ) ;
#19 = DIRECTION ( 'NONE',  ( -0.000000000000000000, -0.000000000000000000, -1.000000000000000000 ) ) ;
#20 = VECTOR ( 'NONE', #117, 1000.000000000000000 ) ;
#21 = EDGE_CURVE ( 'NONE', #195, #189, #82, .T. ) ;
#22 = CARTESIAN_POINT ( 'NONE',  ( 6.000000000000000888, 7.347880794884120722E-16, 132.0000000000000000 ) ) ;
#23 = CALENDAR_DATE ( 2022, 7, 7 ) ;
#24 = COORDINATED_UNIVERSAL_TIME_OFFSET ( 1, 0, .AHEAD. ) ;
#25 = APPROVAL_PERSON_ORGANIZATION ( #87, #6, #278 ) ;
#26 = ADVANCED_FACE ( 'NONE', ( #244 ), #43, .T. ) ;
#27 = CARTESIAN_POINT ( 'NONE',  ( 0.000000000000000000, 0.000000000000000000, 0.000000000000000000 ) ) ;
#28 = ORIENTED_EDGE ( 'NONE', *, *, #138, .T. ) ;
#29 = DIRECTION ( 'NONE',  ( 0.000000000000000000, 0.000000000000000000, 1.000000000000000000 ) ) ;
#30 = DIRECTION ( 'NONE',  ( -1.000000000000000000, 1.224646799147353454E-16, 0.000000000000000000 ) ) ;
#31 = AXIS2_PLACEMENT_3D ( 'NONE', #136, #159, #45 ) ;
#32 = ORIENTED_EDGE ( 'NONE', *, *, #72, .F. ) ;
#33 = AXIS2_PLACEMENT_3D ( 'NONE', #198, #296, #127 ) ;
#34 = CARTESIAN_POINT ( 'NONE',  ( 0.000000000000000000, 0.000000000000000000, 7.199999999999998401 ) ) ;
#35 = CARTESIAN_POINT ( 'NONE',  ( -9.000000000000000000, 0.000000000000000000, 7.000000000000000000 ) ) ;
#36 = CARTESIAN_POINT ( 'NONE',  ( 0.000000000000000000, 0.000000000000000000, 132.0000000000000000 ) ) ;
#37 = VERTEX_POINT ( 'NONE', #293 ) ;
#38 = DIRECTION ( 'NONE',  ( 0.000000000000000000, 0.000000000000000000, 1.000000000000000000 ) ) ;
#39 = MANIFOLD_SOLID_BREP ( 'Zaoblit1', #12 ) ;
#40 = LOCAL_TIME ( 11, 47, 12.00000000000000000, #24 ) ;
#41 = FACE_OUTER_BOUND ( 'NONE', #57, .T. ) ;
#42 = DATE_AND_TIME ( #252, #40 ) ;
#43 = PLANE ( 'NONE',  #196 ) ;
#44 = MECHANICAL_CONTEXT ( 'NONE', #190, 'mechanical' ) ;
#45 = DIRECTION ( 'NONE',  ( 1.000000000000000000, 0.000000000000000000, 0.000000000000000000 ) ) ;
#46 = AXIS2_PLACEMENT_3D ( 'NONE', #54, #172, #30 ) ;
#47 = SECURITY_CLASSIFICATION_LEVEL ( 'unclassified' ) ;
#48 = APPROVAL_DATE_TIME ( #1, #6 ) ;
#49 = AXIS2_PLACEMENT_3D ( 'NONE', #34, #52, #119 ) ;
#50 = ADVANCED_FACE ( 'NONE', ( #60 ), #81, .T. ) ;
#51 = CIRCLE ( 'NONE', #49, 6.000000000000000888 ) ;
#52 = DIRECTION ( 'NONE',  ( 0.000000000000000000, 0.000000000000000000, 1.000000000000000000 ) ) ;
#53 = ORIENTED_EDGE ( 'NONE', *, *, #276, .T. ) ;
#54 = CARTESIAN_POINT ( 'NONE',  ( -6.200000000000001066, 7.592810154713590821E-16, 7.199999999999998401 ) ) ;
#55 = CARTESIAN_POINT ( 'NONE',  ( 0.000000000000000000, 0.000000000000000000, 7.000000000000000000 ) ) ;
#56 = AXIS2_PLACEMENT_3D ( 'NONE', #285, #144, #262 ) ;
#57 = EDGE_LOOP ( 'NONE', ( #253, #79 ) ) ;
#58 = CARTESIAN_POINT ( 'NONE',  ( -6.000000000000000888, 0.000000000000000000, 7.199999999999998401 ) ) ;
#59 = ORIENTED_EDGE ( 'NONE', *, *, #141, .F. ) ;
#60 = FACE_OUTER_BOUND ( 'NONE', #173, .T. ) ;
#61 = AXIS2_PLACEMENT_3D ( 'NONE', #55, #3, #212 ) ;
#62 = VERTEX_POINT ( 'NONE', #58 ) ;
#63 = PRODUCT_DEFINITION ( 'NEZNÁMÝ', '', #155, #169 ) ;
#64 =( NAMED_UNIT ( * ) PLANE_ANGLE_UNIT ( ) SI_UNIT ( $, .RADIAN. ) );
#65 = PERSON_AND_ORGANIZATION ( #226, #294 ) ;
#66 = FACE_OUTER_BOUND ( 'NONE', #142, .T. ) ;
#67 = AXIS2_PLACEMENT_3D ( 'NONE', #225, #83, #176 ) ;
#68 = EDGE_CURVE ( 'NONE', #189, #197, #160, .T. ) ;
#69 = APPLICATION_CONTEXT ( 'configuration controlled 3d designs of mechanical parts and assemblies' ) ;
#70 = PERSON_AND_ORGANIZATION ( #226, #294 ) ;
#71 = CC_DESIGN_PERSON_AND_ORGANIZATION_ASSIGNMENT ( #256, #137, ( #94 ) ) ;
#72 = EDGE_CURVE ( 'NONE', #167, #17, #110, .T. ) ;
#73 = CIRCLE ( 'NONE', #61, 9.000000000000000000 ) ;
#74 = DIRECTION ( 'NONE',  ( -1.000000000000000000, 0.000000000000000000, 0.000000000000000000 ) ) ;
#75 = ORIENTED_EDGE ( 'NONE', *, *, #153, .F. ) ;
#76 = CARTESIAN_POINT ( 'NONE',  ( -9.000000000000000000, 0.000000000000000000, 7.000000000000000000 ) ) ;
#77 = CC_DESIGN_PERSON_AND_ORGANIZATION_ASSIGNMENT ( #204, #134, ( #279 ) ) ;
#78 = DIRECTION ( 'NONE',  ( 0.000000000000000000, 0.000000000000000000, 1.000000000000000000 ) ) ;
#79 = ORIENTED_EDGE ( 'NONE', *, *, #118, .T. ) ;
#80 = DIRECTION ( 'NONE',  ( -0.000000000000000000, -0.000000000000000000, -1.000000000000000000 ) ) ;
#81 = CYLINDRICAL_SURFACE ( 'NONE', #163, 6.000000000000000888 ) ;
#82 = LINE ( 'NONE', #35, #125 ) ;
#83 = DIRECTION ( 'NONE',  ( 0.000000000000000000, 0.000000000000000000, 1.000000000000000000 ) ) ;
#84 = PLANE ( 'NONE',  #267 ) ;
#85 = PERSON_AND_ORGANIZATION ( #226, #294 ) ;
#86 = APPLICATION_PROTOCOL_DEFINITION ( 'international standard', 'config_control_design', 1994, #190 ) ;
#87 = PERSON_AND_ORGANIZATION ( #226, #294 ) ;
#88 = VECTOR ( 'NONE', #292, 1000.000000000000000 ) ;
#89 = ADVANCED_FACE ( 'NONE', ( #218, #41 ), #84, .T. ) ;
#90 =( GEOMETRIC_REPRESENTATION_CONTEXT ( 3 ) GLOBAL_UNCERTAINTY_ASSIGNED_CONTEXT ( ( #96 ) ) GLOBAL_UNIT_ASSIGNED_CONTEXT ( ( #228, #64, #298 ) ) REPRESENTATION_CONTEXT ( 'NONE', 'WORKASPACE' ) );
#91 = ADVANCED_FACE ( 'NONE', ( #149 ), #104, .F. ) ;
#92 = DIRECTION ( 'NONE',  ( 1.000000000000000000, 0.000000000000000000, 0.000000000000000000 ) ) ;
#93 = DIRECTION ( 'NONE',  ( 0.000000000000000000, -1.000000000000000000, 0.000000000000000000 ) ) ;
#94 = SECURITY_CLASSIFICATION ( '', '', #47 ) ;
#95 = DIRECTION ( 'NONE',  ( 0.000000000000000000, 0.000000000000000000, -1.000000000000000000 ) ) ;
#96 = UNCERTAINTY_MEASURE_WITH_UNIT (LENGTH_MEASURE( 1.000000000000000082E-05 ), #228, 'distance_accuracy_value', 'NONE');
#97 = EDGE_CURVE ( 'NONE', #17, #167, #2, .T. ) ;
#98 = ORIENTED_EDGE ( 'NONE', *, *, #68, .T. ) ;
#99 = CARTESIAN_POINT ( 'NONE',  ( 0.000000000000000000, 0.000000000000000000, 7.000000000000000000 ) ) ;
#100 = ORIENTED_EDGE ( 'NONE', *, *, #116, .F. ) ;
#101 = EDGE_LOOP ( 'NONE', ( #270, #32, #170, #14 ) ) ;
#102 = EDGE_LOOP ( 'NONE', ( #194, #221, #192, #59 ) ) ;
#103 = AXIS2_PLACEMENT_3D ( 'NONE', #203, #161, #200 ) ;
#104 = PLANE ( 'NONE',  #33 ) ;
#105 = ADVANCED_FACE ( 'NONE', ( #148 ), #15, .F. ) ;
#106 = DIRECTION ( 'NONE',  ( 0.000000000000000000, 0.000000000000000000, 1.000000000000000000 ) ) ;
#107 = COORDINATED_UNIVERSAL_TIME_OFFSET ( 1, 0, .AHEAD. ) ;
#108 = LOCAL_TIME ( 11, 47, 12.00000000000000000, #109 ) ;
#109 = COORDINATED_UNIVERSAL_TIME_OFFSET ( 1, 0, .AHEAD. ) ;
#110 = CIRCLE ( 'NONE', #229, 6.000000000000000888 ) ;
#111 = DIRECTION ( 'NONE',  ( 1.000000000000000000, 0.000000000000000000, 0.000000000000000000 ) ) ;
#112 = CC_DESIGN_DATE_AND_TIME_ASSIGNMENT ( #232, #304, ( #94 ) ) ;
#113 = ADVANCED_FACE ( 'NONE', ( #123 ), #209, .T. ) ;
#114 = CIRCLE ( 'NONE', #202, 9.000000000000000000 ) ;
#115 = CARTESIAN_POINT ( 'NONE',  ( 0.000000000000000000, 0.000000000000000000, 7.199999999999998401 ) ) ;
#116 = EDGE_CURVE ( 'NONE', #195, #126, #114, .T. ) ;
#117 = DIRECTION ( 'NONE',  ( -0.000000000000000000, -0.000000000000000000, -1.000000000000000000 ) ) ;
#118 = EDGE_CURVE ( 'NONE', #126, #195, #73, .T. ) ;
#119 = DIRECTION ( 'NONE',  ( 1.000000000000000000, 0.000000000000000000, 0.000000000000000000 ) ) ;
#120 = CIRCLE ( 'NONE', #165, 6.000000000000000888 ) ;
#121 = CARTESIAN_POINT ( 'NONE',  ( -9.000000000000000000, 0.000000000000000000, 0.000000000000000000 ) ) ;
#122 = EDGE_LOOP ( 'NONE', ( #213, #53 ) ) ;
#123 = FACE_OUTER_BOUND ( 'NONE', #274, .T. ) ;
#124 = CARTESIAN_POINT ( 'NONE',  ( 0.000000000000000000, 0.000000000000000000, 7.000000000000000000 ) ) ;
#125 = VECTOR ( 'NONE', #154, 1000.000000000000000 ) ;
#126 = VERTEX_POINT ( 'NONE', #7 ) ;
#127 = DIRECTION ( 'NONE',  ( 1.000000000000000000, 0.000000000000000000, -0.000000000000000000 ) ) ;
#128 = EDGE_CURVE ( 'NONE', #197, #189, #133, .T. ) ;
#129 = DIRECTION ( 'NONE',  ( 1.000000000000000000, 0.000000000000000000, 0.000000000000000000 ) ) ;
#130 = APPROVAL_STATUS ( 'not_yet_approved' ) ;
#131 = CC_DESIGN_SECURITY_CLASSIFICATION ( #94, ( #155 ) ) ;
#132 = COORDINATED_UNIVERSAL_TIME_OFFSET ( 1, 0, .AHEAD. ) ;
#133 = CIRCLE ( 'NONE', #282, 9.000000000000000000 ) ;
#134 = PERSON_AND_ORGANIZATION_ROLE ( 'design_owner' ) ;
#135 = APPROVAL_STATUS ( 'not_yet_approved' ) ;
#136 = CARTESIAN_POINT ( 'NONE',  ( 0.000000000000000000, 0.000000000000000000, 0.000000000000000000 ) ) ;
#137 = PERSON_AND_ORGANIZATION_ROLE ( 'classification_officer' ) ;
#138 = EDGE_CURVE ( 'NONE', #266, #62, #51, .T. ) ;
#139 = CC_DESIGN_DATE_AND_TIME_ASSIGNMENT ( #178, #181, ( #63 ) ) ;
#140 = AXIS2_PLACEMENT_3D ( 'NONE', #224, #272, #129 ) ;
#141 = EDGE_CURVE ( 'NONE', #266, #37, #242, .T. ) ;
#142 = EDGE_LOOP ( 'NONE', ( #295, #263, #186, #8 ) ) ;
#143 = DIRECTION ( 'NONE',  ( -0.000000000000000000, -0.000000000000000000, -1.000000000000000000 ) ) ;
#144 = DIRECTION ( 'NONE',  ( 0.000000000000000000, 0.000000000000000000, 1.000000000000000000 ) ) ;
#145 = ORIENTED_EDGE ( 'NONE', *, *, #68, .F. ) ;
#146 = CC_DESIGN_APPROVAL ( #258, ( #94 ) ) ;
#147 = AXIS2_PLACEMENT_3D ( 'NONE', #191, #13, #188 ) ;
#148 = FACE_OUTER_BOUND ( 'NONE', #241, .T. ) ;
#149 = FACE_OUTER_BOUND ( 'NONE', #271, .T. ) ;
#150 = CARTESIAN_POINT ( 'NONE',  ( 9.000000000000000000, 1.102182119232617714E-15, 7.000000000000000000 ) ) ;
#151 = CARTESIAN_POINT ( 'NONE',  ( 0.000000000000000000, 0.000000000000000000, 132.0000000000000000 ) ) ;
#152 = DIRECTION ( 'NONE',  ( -0.000000000000000000, -0.000000000000000000, -1.000000000000000000 ) ) ;
#153 = EDGE_CURVE ( 'NONE', #126, #197, #193, .T. ) ;
#154 = DIRECTION ( 'NONE',  ( -0.000000000000000000, -0.000000000000000000, -1.000000000000000000 ) ) ;
#155 = PRODUCT_DEFINITION_FORMATION_WITH_SPECIFIED_SOURCE ( 'LIBOVOLNÝ', '', #279, .NOT_KNOWN. ) ;
#156 = APPROVAL_ROLE ( '' ) ;
#157 = ORIENTED_EDGE ( 'NONE', *, *, #21, .T. ) ;
#158 = PERSON_AND_ORGANIZATION ( #226, #294 ) ;
#159 = DIRECTION ( 'NONE',  ( 0.000000000000000000, 0.000000000000000000, 1.000000000000000000 ) ) ;
#160 = CIRCLE ( 'NONE', #140, 9.000000000000000000 ) ;
#161 = DIRECTION ( 'NONE',  ( -0.000000000000000000, -0.000000000000000000, -1.000000000000000000 ) ) ;
#162 = CC_DESIGN_PERSON_AND_ORGANIZATION_ASSIGNMENT ( #158, #18, ( #63 ) ) ;
#163 = AXIS2_PLACEMENT_3D ( 'NONE', #175, #152, #251 ) ;
#164 = EDGE_CURVE ( 'NONE', #37, #286, #236, .T. ) ;
#165 = AXIS2_PLACEMENT_3D ( 'NONE', #300, #179, #111 ) ;
#166 = CARTESIAN_POINT ( 'NONE',  ( -6.000000000000000888, 0.000000000000000000, 132.0000000000000000 ) ) ;
#167 = VERTEX_POINT ( 'NONE', #166 ) ;
#168 = DIRECTION ( 'NONE',  ( 1.000000000000000000, 0.000000000000000000, 0.000000000000000000 ) ) ;
#169 = DESIGN_CONTEXT ( 'detailed design', #69, 'design' ) ;
#170 = ORIENTED_EDGE ( 'NONE', *, *, #259, .T. ) ;
#171 = AXIS2_PLACEMENT_3D ( 'NONE', #115, #29, #92 ) ;
#172 = DIRECTION ( 'NONE',  ( 1.224646799147353207E-16, 1.000000000000000000, -0.000000000000000000 ) ) ;
#173 = EDGE_LOOP ( 'NONE', ( #237, #174, #28, #260 ) ) ;
#174 = ORIENTED_EDGE ( 'NONE', *, *, #290, .T. ) ;
#175 = CARTESIAN_POINT ( 'NONE',  ( 0.000000000000000000, 0.000000000000000000, 132.0000000000000000 ) ) ;
#176 = DIRECTION ( 'NONE',  ( 1.000000000000000000, 0.000000000000000000, 0.000000000000000000 ) ) ;
#177 = ORIENTED_EDGE ( 'NONE', *, *, #141, .T. ) ;
#178 = DATE_AND_TIME ( #305, #207 ) ;
#179 = DIRECTION ( 'NONE',  ( 0.000000000000000000, 0.000000000000000000, 1.000000000000000000 ) ) ;
#180 = CALENDAR_DATE ( 2022, 7, 7 ) ;
#181 = DATE_TIME_ROLE ( 'creation_date' ) ;
#182 = AXIS2_PLACEMENT_3D ( 'NONE', #99, #216, #288 ) ;
#183 = DATE_AND_TIME ( #23, #108 ) ;
#184 = CC_DESIGN_APPROVAL ( #215, ( #63 ) ) ;
#185 = FACE_OUTER_BOUND ( 'NONE', #101, .T. ) ;
#186 = ORIENTED_EDGE ( 'NONE', *, *, #128, .T. ) ;
#187 = LOCAL_TIME ( 11, 47, 12.00000000000000000, #107 ) ;
#188 = DIRECTION ( 'NONE',  ( 1.000000000000000000, 0.000000000000000000, 0.000000000000000000 ) ) ;
#189 = VERTEX_POINT ( 'NONE', #121 ) ;
#190 = APPLICATION_CONTEXT ( 'configuration controlled 3d designs of mechanical parts and assemblies' ) ;
#191 = CARTESIAN_POINT ( 'NONE',  ( 0.000000000000000000, 0.000000000000000000, 7.000000000000000000 ) ) ;
#192 = ORIENTED_EDGE ( 'NONE', *, *, #164, .F. ) ;
#193 = LINE ( 'NONE', #150, #88 ) ;
#194 = ORIENTED_EDGE ( 'NONE', *, *, #284, .F. ) ;
#195 = VERTEX_POINT ( 'NONE', #76 ) ;
#196 = AXIS2_PLACEMENT_3D ( 'NONE', #151, #269, #299 ) ;
#197 = VERTEX_POINT ( 'NONE', #264 ) ;
#198 = CARTESIAN_POINT ( 'NONE',  ( 0.000000000000000000, 0.000000000000000000, 0.000000000000000000 ) ) ;
#199 = EDGE_LOOP ( 'NONE', ( #211, #219 ) ) ;
#200 = DIRECTION ( 'NONE',  ( -1.000000000000000000, 0.000000000000000000, 0.000000000000000000 ) ) ;
#201 = APPROVAL_PERSON_ORGANIZATION ( #65, #215, #156 ) ;
#202 = AXIS2_PLACEMENT_3D ( 'NONE', #239, #78, #168 ) ;
#203 = CARTESIAN_POINT ( 'NONE',  ( 0.000000000000000000, 0.000000000000000000, 7.000000000000000000 ) ) ;
#204 = PERSON_AND_ORGANIZATION ( #226, #294 ) ;
#205 = APPROVAL_ROLE ( '' ) ;
#206 = ADVANCED_FACE ( 'NONE', ( #245 ), #250, .F. ) ;
#207 = LOCAL_TIME ( 11, 47, 12.00000000000000000, #254 ) ;
#208 = ADVANCED_FACE ( 'NONE', ( #185 ), #217, .T. ) ;
#209 = CYLINDRICAL_SURFACE ( 'NONE', #182, 9.000000000000000000 ) ;
#210 = AXIS2_PLACEMENT_3D ( 'NONE', #36, #143, #74 ) ;
#211 = ORIENTED_EDGE ( 'NONE', *, *, #72, .T. ) ;
#212 = DIRECTION ( 'NONE',  ( 1.000000000000000000, 0.000000000000000000, 0.000000000000000000 ) ) ;
#213 = ORIENTED_EDGE ( 'NONE', *, *, #164, .T. ) ;
#214 = AXIS2_PLACEMENT_3D ( 'NONE', #9, #80, #268 ) ;
#215 = APPROVAL ( #277, 'NEURÈENÝ' ) ;
#216 = DIRECTION ( 'NONE',  ( -0.000000000000000000, -0.000000000000000000, -1.000000000000000000 ) ) ;
#217 = CYLINDRICAL_SURFACE ( 'NONE', #210, 6.000000000000000888 ) ;
#218 = FACE_BOUND ( 'NONE', #122, .T. ) ;
#219 = ORIENTED_EDGE ( 'NONE', *, *, #97, .T. ) ;
#220 = DIRECTION ( 'NONE',  ( 1.000000000000000000, 0.000000000000000000, 0.000000000000000000 ) ) ;
#221 = ORIENTED_EDGE ( 'NONE', *, *, #222, .T. ) ;
#222 = EDGE_CURVE ( 'NONE', #62, #286, #261, .T. ) ;
#223 = AXIS2_PLACEMENT_3D ( 'NONE', #238, #93, #95 ) ;
#224 = CARTESIAN_POINT ( 'NONE',  ( 0.000000000000000000, 0.000000000000000000, 0.000000000000000000 ) ) ;
#225 = CARTESIAN_POINT ( 'NONE',  ( 0.000000000000000000, 0.000000000000000000, 132.0000000000000000 ) ) ;
#226 = PERSON ( 'NEURÈENÝ', 'NEURÈENÝ', 'NEURÈENÝ', ('NEURÈENÝ'), ('NEURÈENÝ'), ('NEURÈENÝ') ) ;
#227 = APPLICATION_PROTOCOL_DEFINITION ( 'international standard', 'config_control_design', 1994, #69 ) ;
#228 =( LENGTH_UNIT ( ) NAMED_UNIT ( * ) SI_UNIT ( .MILLI., .METRE. ) );
#229 = AXIS2_PLACEMENT_3D ( 'NONE', #248, #106, #16 ) ;
#230 = SHAPE_DEFINITION_REPRESENTATION ( #255, #297 ) ;
#231 = APPROVAL_DATE_TIME ( #42, #215 ) ;
#232 = DATE_AND_TIME ( #281, #240 ) ;
#233 = CC_DESIGN_APPROVAL ( #6, ( #155 ) ) ;
#234 = APPROVAL_DATE_TIME ( #183, #258 ) ;
#235 = APPROVAL_PERSON_ORGANIZATION ( #70, #258, #205 ) ;
#236 = CIRCLE ( 'NONE', #147, 6.200000000000001066 ) ;
#237 = ORIENTED_EDGE ( 'NONE', *, *, #97, .F. ) ;
#238 = CARTESIAN_POINT ( 'NONE',  ( 6.200000000000001066, 0.000000000000000000, 7.199999999999998401 ) ) ;
#239 = CARTESIAN_POINT ( 'NONE',  ( 0.000000000000000000, 0.000000000000000000, 7.000000000000000000 ) ) ;
#240 = LOCAL_TIME ( 11, 47, 12.00000000000000000, #132 ) ;
#241 = EDGE_LOOP ( 'NONE', ( #11, #291, #177, #4 ) ) ;
#242 = CIRCLE ( 'NONE', #223, 0.1999999999999996503 ) ;
#243 = DIRECTION ( 'NONE',  ( 0.000000000000000000, 0.000000000000000000, 1.000000000000000000 ) ) ;
#244 = FACE_OUTER_BOUND ( 'NONE', #199, .T. ) ;
#245 = FACE_OUTER_BOUND ( 'NONE', #102, .T. ) ;
#246 = CARTESIAN_POINT ( 'NONE',  ( 6.000000000000000888, 7.347880794884120722E-16, 132.0000000000000000 ) ) ;
#247 = ORIENTED_EDGE ( 'NONE', *, *, #128, .F. ) ;
#248 = CARTESIAN_POINT ( 'NONE',  ( 0.000000000000000000, 0.000000000000000000, 132.0000000000000000 ) ) ;
#249 = CC_DESIGN_PERSON_AND_ORGANIZATION_ASSIGNMENT ( #257, #303, ( #155 ) ) ;
#250 = TOROIDAL_SURFACE ( 'NONE', #171, 6.200000000000001066, 0.2000000000000000111 ) ;
#251 = DIRECTION ( 'NONE',  ( -1.000000000000000000, 0.000000000000000000, 0.000000000000000000 ) ) ;
#252 = CALENDAR_DATE ( 2022, 7, 7 ) ;
#253 = ORIENTED_EDGE ( 'NONE', *, *, #116, .T. ) ;
#254 = COORDINATED_UNIVERSAL_TIME_OFFSET ( 1, 0, .AHEAD. ) ;
#255 = PRODUCT_DEFINITION_SHAPE ( 'NONE', 'NONE',  #63 ) ;
#256 = PERSON_AND_ORGANIZATION ( #226, #294 ) ;
#257 = PERSON_AND_ORGANIZATION ( #226, #294 ) ;
#258 = APPROVAL ( #135, 'NEURÈENÝ' ) ;
#259 = EDGE_CURVE ( 'NONE', #167, #62, #289, .T. ) ;
#260 = ORIENTED_EDGE ( 'NONE', *, *, #259, .F. ) ;
#261 = CIRCLE ( 'NONE', #46, 0.1999999999999996503 ) ;
#262 = DIRECTION ( 'NONE',  ( 1.000000000000000000, 0.000000000000000000, 0.000000000000000000 ) ) ;
#263 = ORIENTED_EDGE ( 'NONE', *, *, #153, .T. ) ;
#264 = CARTESIAN_POINT ( 'NONE',  ( 9.000000000000000000, 1.102182119232617714E-15, 0.000000000000000000 ) ) ;
#265 = CARTESIAN_POINT ( 'NONE',  ( -6.000000000000000888, 0.000000000000000000, 132.0000000000000000 ) ) ;
#266 = VERTEX_POINT ( 'NONE', #5 ) ;
#267 = AXIS2_PLACEMENT_3D ( 'NONE', #124, #38, #10 ) ;
#268 = DIRECTION ( 'NONE',  ( 1.000000000000000000, 0.000000000000000000, 0.000000000000000000 ) ) ;
#269 = DIRECTION ( 'NONE',  ( 0.000000000000000000, 0.000000000000000000, 1.000000000000000000 ) ) ;
#270 = ORIENTED_EDGE ( 'NONE', *, *, #290, .F. ) ;
#271 = EDGE_LOOP ( 'NONE', ( #145, #247 ) ) ;
#272 = DIRECTION ( 'NONE',  ( 0.000000000000000000, 0.000000000000000000, 1.000000000000000000 ) ) ;
#273 = LINE ( 'NONE', #22, #287 ) ;
#274 = EDGE_LOOP ( 'NONE', ( #75, #100, #157, #98 ) ) ;
#275 = CARTESIAN_POINT ( 'NONE',  ( -6.200000000000001066, 7.592810154713590821E-16, 6.999999999999999112 ) ) ;
#276 = EDGE_CURVE ( 'NONE', #286, #37, #301, .T. ) ;
#277 = APPROVAL_STATUS ( 'not_yet_approved' ) ;
#278 = APPROVAL_ROLE ( '' ) ;
#279 = PRODUCT ( '0914', '0914', '', ( #44 ) ) ;
#280 = PRODUCT_RELATED_PRODUCT_CATEGORY ( 'detail', '', ( #279 ) ) ;
#281 = CALENDAR_DATE ( 2022, 7, 7 ) ;
#282 = AXIS2_PLACEMENT_3D ( 'NONE', #27, #243, #220 ) ;
#283 = ADVANCED_FACE ( 'NONE', ( #66 ), #307, .T. ) ;
#284 = EDGE_CURVE ( 'NONE', #62, #266, #120, .T. ) ;
#285 = CARTESIAN_POINT ( 'NONE',  ( 0.000000000000000000, 0.000000000000000000, 7.199999999999998401 ) ) ;
#286 = VERTEX_POINT ( 'NONE', #275 ) ;
#287 = VECTOR ( 'NONE', #19, 1000.000000000000000 ) ;
#288 = DIRECTION ( 'NONE',  ( -1.000000000000000000, 0.000000000000000000, 0.000000000000000000 ) ) ;
#289 = LINE ( 'NONE', #265, #20 ) ;
#290 = EDGE_CURVE ( 'NONE', #17, #266, #273, .T. ) ;
#291 = ORIENTED_EDGE ( 'NONE', *, *, #138, .F. ) ;
#292 = DIRECTION ( 'NONE',  ( -0.000000000000000000, -0.000000000000000000, -1.000000000000000000 ) ) ;
#293 = CARTESIAN_POINT ( 'NONE',  ( 6.200000000000001066, 0.000000000000000000, 6.999999999999999112 ) ) ;
#294 = ORGANIZATION ( 'NEURÈENÝ', 'NEURÈENÝ', '' ) ;
#295 = ORIENTED_EDGE ( 'NONE', *, *, #118, .F. ) ;
#296 = DIRECTION ( 'NONE',  ( 0.000000000000000000, 0.000000000000000000, 1.000000000000000000 ) ) ;
#297 = ADVANCED_BREP_SHAPE_REPRESENTATION ( '0914', ( #39, #31 ), #90 ) ;
#298 =( NAMED_UNIT ( * ) SI_UNIT ( $, .STERADIAN. ) SOLID_ANGLE_UNIT ( ) );
#299 = DIRECTION ( 'NONE',  ( 1.000000000000000000, 0.000000000000000000, -0.000000000000000000 ) ) ;
#300 = CARTESIAN_POINT ( 'NONE',  ( 0.000000000000000000, 0.000000000000000000, 7.199999999999998401 ) ) ;
#301 = CIRCLE ( 'NONE', #214, 6.200000000000001066 ) ;
#302 = CC_DESIGN_PERSON_AND_ORGANIZATION_ASSIGNMENT ( #85, #306, ( #155 ) ) ;
#303 = PERSON_AND_ORGANIZATION_ROLE ( 'creator' ) ;
#304 = DATE_TIME_ROLE ( 'classification_date' ) ;
#305 = CALENDAR_DATE ( 2022, 7, 7 ) ;
#306 = PERSON_AND_ORGANIZATION_ROLE ( 'design_supplier' ) ;
#307 = CYLINDRICAL_SURFACE ( 'NONE', #103, 9.000000000000000000 ) ;
ENDSEC;
END-ISO-10303-21;
