ISO-10303-21;
HEADER;
FILE_DESCRIPTION (( 'STEP AP203' ),
    '1' );
FILE_NAME ('7e1a.STEP',
    '2022-07-07T10:39:02',
    ( '' ),
    ( '' ),
    'SwSTEP 2.0',
    'SolidWorks 2019',
    '' );
FILE_SCHEMA (( 'CONFIG_CONTROL_DESIGN' ));
ENDSEC;

DATA;
#1 = AXIS2_PLACEMENT_3D ( 'NONE', #158, #22, #117 ) ;
#2 = CC_DESIGN_PERSON_AND_ORGANIZATION_ASSIGNMENT ( #130, #10, ( #249 ) ) ;
#3 = AXIS2_PLACEMENT_3D ( 'NONE', #210, #230, #68 ) ;
#4 = FACE_OUTER_BOUND ( 'NONE', #92, .T. ) ;
#5 = PERSON_AND_ORGANIZATION ( #148, #283 ) ;
#6 = PRODUCT_DEFINITION ( 'NEZNÁMÝ', '', #196, #93 ) ;
#7 = DIRECTION ( 'NONE',  ( 0.000000000000000000, 0.000000000000000000, 1.000000000000000000 ) ) ;
#8 = ORIENTED_EDGE ( 'NONE', *, *, #14, .F. ) ;
#9 = MECHANICAL_CONTEXT ( 'NONE', #103, 'mechanical' ) ;
#10 = PERSON_AND_ORGANIZATION_ROLE ( 'classification_officer' ) ;
#11 = TOROIDAL_SURFACE ( 'NONE', #39, 0.9500000000000000666, 0.2000000000000000111 ) ;
#12 = CARTESIAN_POINT ( 'NONE',  ( -0.9500000000000000666, 1.163414459189985682E-16, 1.500000000000003553 ) ) ;
#13 = PRODUCT ( '7e1a', '7e1a', '', ( #9 ) ) ;
#14 = EDGE_CURVE ( 'NONE', #206, #203, #183, .T. ) ;
#15 = CARTESIAN_POINT ( 'NONE',  ( 0.7500000000000001110, 9.184850993605150903E-17, 101.5000000000000000 ) ) ;
#16 = ORIENTED_EDGE ( 'NONE', *, *, #27, .F. ) ;
#17 = LINE ( 'NONE', #15, #178 ) ;
#18 = ORIENTED_EDGE ( 'NONE', *, *, #131, .F. ) ;
#19 = EDGE_LOOP ( 'NONE', ( #135, #49 ) ) ;
#20 = PERSON_AND_ORGANIZATION ( #148, #283 ) ;
#21 = DIRECTION ( 'NONE',  ( 1.000000000000000000, 0.000000000000000000, 0.000000000000000000 ) ) ;
#22 = DIRECTION ( 'NONE',  ( 0.000000000000000000, 0.000000000000000000, 1.000000000000000000 ) ) ;
#23 = ORIENTED_EDGE ( 'NONE', *, *, #14, .T. ) ;
#24 = CARTESIAN_POINT ( 'NONE',  ( 0.000000000000000000, 0.000000000000000000, 0.000000000000000000 ) ) ;
#25 = ADVANCED_FACE ( 'NONE', ( #306 ), #55, .F. ) ;
#26 = AXIS2_PLACEMENT_3D ( 'NONE', #122, #7, #201 ) ;
#27 = EDGE_CURVE ( 'NONE', #279, #35, #165, .T. ) ;
#28 = CARTESIAN_POINT ( 'NONE',  ( 1.500000000000000222, 1.836970198721030181E-16, 1.500000000000000000 ) ) ;
#29 = CALENDAR_DATE ( 2022, 7, 7 ) ;
#30 = DIRECTION ( 'NONE',  ( -1.000000000000000000, 0.000000000000000000, 0.000000000000000000 ) ) ;
#31 = ORIENTED_EDGE ( 'NONE', *, *, #285, .F. ) ;
#32 = DIRECTION ( 'NONE',  ( -0.000000000000000000, -0.000000000000000000, -1.000000000000000000 ) ) ;
#33 = APPROVAL_STATUS ( 'not_yet_approved' ) ;
#34 = LINE ( 'NONE', #76, #239 ) ;
#35 = VERTEX_POINT ( 'NONE', #259 ) ;
#36 = FACE_OUTER_BOUND ( 'NONE', #159, .T. ) ;
#37 = ADVANCED_FACE ( 'NONE', ( #118 ), #155, .T. ) ;
#38 = APPROVAL_STATUS ( 'not_yet_approved' ) ;
#39 = AXIS2_PLACEMENT_3D ( 'NONE', #111, #244, #142 ) ;
#40 =( GEOMETRIC_REPRESENTATION_CONTEXT ( 3 ) GLOBAL_UNCERTAINTY_ASSIGNED_CONTEXT ( ( #261 ) ) GLOBAL_UNIT_ASSIGNED_CONTEXT ( ( #222, #264, #58 ) ) REPRESENTATION_CONTEXT ( 'NONE', 'WORKASPACE' ) );
#41 = CARTESIAN_POINT ( 'NONE',  ( 0.000000000000000000, 0.000000000000000000, 1.500000000000000000 ) ) ;
#42 = ORIENTED_EDGE ( 'NONE', *, *, #160, .F. ) ;
#43 = COORDINATED_UNIVERSAL_TIME_OFFSET ( 1, 0, .AHEAD. ) ;
#44 = FACE_OUTER_BOUND ( 'NONE', #180, .T. ) ;
#45 = DIRECTION ( 'NONE',  ( 0.000000000000000000, 0.000000000000000000, 1.000000000000000000 ) ) ;
#46 = ORIENTED_EDGE ( 'NONE', *, *, #71, .F. ) ;
#47 = VECTOR ( 'NONE', #177, 1000.000000000000000 ) ;
#48 = DIRECTION ( 'NONE',  ( 0.000000000000000000, 0.000000000000000000, 1.000000000000000000 ) ) ;
#49 = ORIENTED_EDGE ( 'NONE', *, *, #285, .T. ) ;
#50 = ORIENTED_EDGE ( 'NONE', *, *, #160, .T. ) ;
#51 = ORIENTED_EDGE ( 'NONE', *, *, #200, .T. ) ;
#52 = AXIS2_PLACEMENT_3D ( 'NONE', #77, #189, #149 ) ;
#53 = ORIENTED_EDGE ( 'NONE', *, *, #64, .F. ) ;
#54 = CC_DESIGN_PERSON_AND_ORGANIZATION_ASSIGNMENT ( #199, #110, ( #196 ) ) ;
#55 = TOROIDAL_SURFACE ( 'NONE', #1, 0.9500000000000000666, 0.2000000000000000111 ) ;
#56 = EDGE_CURVE ( 'NONE', #203, #206, #75, .T. ) ;
#57 = PLANE ( 'NONE',  #139 ) ;
#58 =( NAMED_UNIT ( * ) SI_UNIT ( $, .STERADIAN. ) SOLID_ANGLE_UNIT ( ) );
#59 = DIRECTION ( 'NONE',  ( 0.000000000000000000, 0.000000000000000000, 1.000000000000000000 ) ) ;
#60 = LOCAL_TIME ( 12, 39, 2.000000000000000000, #106 ) ;
#61 = DIRECTION ( 'NONE',  ( -0.000000000000000000, -0.000000000000000000, -1.000000000000000000 ) ) ;
#62 = ORIENTED_EDGE ( 'NONE', *, *, #190, .F. ) ;
#63 = AXIS2_PLACEMENT_3D ( 'NONE', #218, #202, #153 ) ;
#64 = EDGE_CURVE ( 'NONE', #305, #203, #227, .T. ) ;
#65 = VERTEX_POINT ( 'NONE', #229 ) ;
#66 = CIRCLE ( 'NONE', #307, 0.7500000000000001110 ) ;
#67 = AXIS2_PLACEMENT_3D ( 'NONE', #143, #32, #216 ) ;
#68 = DIRECTION ( 'NONE',  ( 1.000000000000000000, 0.000000000000000000, 0.000000000000000000 ) ) ;
#69 = ORIENTED_EDGE ( 'NONE', *, *, #71, .T. ) ;
#70 = CC_DESIGN_PERSON_AND_ORGANIZATION_ASSIGNMENT ( #272, #217, ( #6 ) ) ;
#71 = EDGE_CURVE ( 'NONE', #123, #305, #213, .T. ) ;
#72 = AXIS2_PLACEMENT_3D ( 'NONE', #238, #73, #268 ) ;
#73 = DIRECTION ( 'NONE',  ( -0.000000000000000000, -0.000000000000000000, -1.000000000000000000 ) ) ;
#74 = ADVANCED_FACE ( 'NONE', ( #90 ), #281, .F. ) ;
#75 = CIRCLE ( 'NONE', #156, 1.500000000000000222 ) ;
#76 = CARTESIAN_POINT ( 'NONE',  ( -0.7500000000000001110, 0.000000000000000000, 101.5000000000000000 ) ) ;
#77 = CARTESIAN_POINT ( 'NONE',  ( 0.000000000000000000, 0.000000000000000000, 1.500000000000000000 ) ) ;
#78 = CARTESIAN_POINT ( 'NONE',  ( -1.500000000000000222, 0.000000000000000000, 0.000000000000000000 ) ) ;
#79 = APPLICATION_PROTOCOL_DEFINITION ( 'international standard', 'config_control_design', 1994, #224 ) ;
#80 = APPROVAL_ROLE ( '' ) ;
#81 = ADVANCED_BREP_SHAPE_REPRESENTATION ( '7e1a', ( #176, #163 ), #40 ) ;
#82 = FACE_OUTER_BOUND ( 'NONE', #145, .T. ) ;
#83 = ORIENTED_EDGE ( 'NONE', *, *, #200, .F. ) ;
#84 = APPROVAL_DATE_TIME ( #169, #91 ) ;
#85 = DIRECTION ( 'NONE',  ( 0.000000000000000000, 0.000000000000000000, 1.000000000000000000 ) ) ;
#86 = PERSON_AND_ORGANIZATION ( #148, #283 ) ;
#87 = APPROVAL_PERSON_ORGANIZATION ( #86, #91, #146 ) ;
#88 = FACE_BOUND ( 'NONE', #19, .T. ) ;
#89 = ORIENTED_EDGE ( 'NONE', *, *, #270, .T. ) ;
#90 = FACE_OUTER_BOUND ( 'NONE', #243, .T. ) ;
#91 = APPROVAL ( #38, 'NEURÈENÝ' ) ;
#92 = EDGE_LOOP ( 'NONE', ( #53, #46, #51, #23 ) ) ;
#93 = DESIGN_CONTEXT ( 'detailed design', #224, 'design' ) ;
#94 = EDGE_CURVE ( 'NONE', #175, #253, #191, .T. ) ;
#95 = EDGE_CURVE ( 'NONE', #35, #251, #235, .T. ) ;
#96 = DIRECTION ( 'NONE',  ( 0.000000000000000000, 0.000000000000000000, 1.000000000000000000 ) ) ;
#97 = DIRECTION ( 'NONE',  ( 1.000000000000000000, 0.000000000000000000, 0.000000000000000000 ) ) ;
#98 = PLANE ( 'NONE',  #114 ) ;
#99 = AXIS2_PLACEMENT_3D ( 'NONE', #231, #304, #182 ) ;
#100 = PERSON_AND_ORGANIZATION ( #148, #283 ) ;
#101 = DIRECTION ( 'NONE',  ( 0.000000000000000000, 0.000000000000000000, 1.000000000000000000 ) ) ;
#102 = ORIENTED_EDGE ( 'NONE', *, *, #187, .F. ) ;
#103 = APPLICATION_CONTEXT ( 'configuration controlled 3d designs of mechanical parts and assemblies' ) ;
#104 = CIRCLE ( 'NONE', #301, 0.2000000000000000944 ) ;
#105 = LOCAL_TIME ( 12, 39, 2.000000000000000000, #43 ) ;
#106 = COORDINATED_UNIVERSAL_TIME_OFFSET ( 1, 0, .AHEAD. ) ;
#107 = CYLINDRICAL_SURFACE ( 'NONE', #126, 0.7500000000000001110 ) ;
#108 = CARTESIAN_POINT ( 'NONE',  ( 0.000000000000000000, 0.000000000000000000, 1.500000000000000000 ) ) ;
#109 = ORIENTED_EDGE ( 'NONE', *, *, #172, .F. ) ;
#110 = PERSON_AND_ORGANIZATION_ROLE ( 'creator' ) ;
#111 = CARTESIAN_POINT ( 'NONE',  ( 0.000000000000000000, 0.000000000000000000, 1.700000000000007061 ) ) ;
#112 = ORIENTED_EDGE ( 'NONE', *, *, #131, .T. ) ;
#113 = ORIENTED_EDGE ( 'NONE', *, *, #94, .T. ) ;
#114 = AXIS2_PLACEMENT_3D ( 'NONE', #267, #289, #298 ) ;
#115 = COORDINATED_UNIVERSAL_TIME_OFFSET ( 1, 0, .AHEAD. ) ;
#116 = ORIENTED_EDGE ( 'NONE', *, *, #187, .T. ) ;
#117 = DIRECTION ( 'NONE',  ( 1.000000000000000000, 0.000000000000000000, 0.000000000000000000 ) ) ;
#118 = FACE_OUTER_BOUND ( 'NONE', #219, .T. ) ;
#119 = ADVANCED_FACE ( 'NONE', ( #88, #269 ), #57, .T. ) ;
#120 = CARTESIAN_POINT ( 'NONE',  ( 0.000000000000000000, 0.000000000000000000, 1.700000000000007061 ) ) ;
#121 = APPROVAL_DATE_TIME ( #241, #232 ) ;
#122 = CARTESIAN_POINT ( 'NONE',  ( 0.000000000000000000, 0.000000000000000000, 0.000000000000000000 ) ) ;
#123 = VERTEX_POINT ( 'NONE', #144 ) ;
#124 = PERSON_AND_ORGANIZATION_ROLE ( 'design_supplier' ) ;
#125 = CARTESIAN_POINT ( 'NONE',  ( 0.000000000000000000, 0.000000000000000000, 101.5000000000000000 ) ) ;
#126 = AXIS2_PLACEMENT_3D ( 'NONE', #125, #132, #30 ) ;
#127 = SECURITY_CLASSIFICATION_LEVEL ( 'unclassified' ) ;
#128 = DIRECTION ( 'NONE',  ( 1.000000000000000000, 0.000000000000000000, 0.000000000000000000 ) ) ;
#129 = ORIENTED_EDGE ( 'NONE', *, *, #56, .F. ) ;
#130 = PERSON_AND_ORGANIZATION ( #148, #283 ) ;
#131 = EDGE_CURVE ( 'NONE', #253, #279, #17, .T. ) ;
#132 = DIRECTION ( 'NONE',  ( -0.000000000000000000, -0.000000000000000000, -1.000000000000000000 ) ) ;
#133 = DIRECTION ( 'NONE',  ( 1.000000000000000000, 0.000000000000000000, 0.000000000000000000 ) ) ;
#134 = PERSON_AND_ORGANIZATION ( #148, #283 ) ;
#135 = ORIENTED_EDGE ( 'NONE', *, *, #95, .T. ) ;
#136 = EDGE_LOOP ( 'NONE', ( #113, #116 ) ) ;
#137 = ORIENTED_EDGE ( 'NONE', *, *, #56, .T. ) ;
#138 = DIRECTION ( 'NONE',  ( -0.000000000000000000, -0.000000000000000000, -1.000000000000000000 ) ) ;
#139 = AXIS2_PLACEMENT_3D ( 'NONE', #223, #59, #192 ) ;
#140 = VECTOR ( 'NONE', #61, 1000.000000000000000 ) ;
#141 = APPROVAL ( #33, 'NEURÈENÝ' ) ;
#142 = DIRECTION ( 'NONE',  ( 1.000000000000000000, 0.000000000000000000, 0.000000000000000000 ) ) ;
#143 = CARTESIAN_POINT ( 'NONE',  ( 0.000000000000000000, 0.000000000000000000, 1.500000000000000000 ) ) ;
#144 = CARTESIAN_POINT ( 'NONE',  ( -1.500000000000000222, 0.000000000000000000, 1.500000000000000000 ) ) ;
#145 = EDGE_LOOP ( 'NONE', ( #109, #154, #258, #31 ) ) ;
#146 = APPROVAL_ROLE ( '' ) ;
#147 = DIRECTION ( 'NONE',  ( -0.000000000000000000, -0.000000000000000000, -1.000000000000000000 ) ) ;
#148 = PERSON ( 'NEURÈENÝ', 'NEURÈENÝ', 'NEURÈENÝ', ('NEURÈENÝ'), ('NEURÈENÝ'), ('NEURÈENÝ') ) ;
#149 = DIRECTION ( 'NONE',  ( 1.000000000000000000, 0.000000000000000000, 0.000000000000000000 ) ) ;
#150 = PRODUCT_DEFINITION_SHAPE ( 'NONE', 'NONE',  #6 ) ;
#151 = CALENDAR_DATE ( 2022, 7, 7 ) ;
#152 = COORDINATED_UNIVERSAL_TIME_OFFSET ( 1, 0, .AHEAD. ) ;
#153 = DIRECTION ( 'NONE',  ( 1.000000000000000000, 0.000000000000000000, 0.000000000000000000 ) ) ;
#154 = ORIENTED_EDGE ( 'NONE', *, *, #184, .F. ) ;
#155 = CYLINDRICAL_SURFACE ( 'NONE', #170, 1.500000000000000222 ) ;
#156 = AXIS2_PLACEMENT_3D ( 'NONE', #24, #45, #133 ) ;
#157 = ORIENTED_EDGE ( 'NONE', *, *, #172, .T. ) ;
#158 = CARTESIAN_POINT ( 'NONE',  ( 0.000000000000000000, 0.000000000000000000, 1.700000000000007061 ) ) ;
#159 = EDGE_LOOP ( 'NONE', ( #18, #209, #282, #89 ) ) ;
#160 = EDGE_CURVE ( 'NONE', #305, #123, #162, .T. ) ;
#161 = AXIS2_PLACEMENT_3D ( 'NONE', #171, #85, #274 ) ;
#162 = CIRCLE ( 'NONE', #195, 1.500000000000000222 ) ;
#163 = AXIS2_PLACEMENT_3D ( 'NONE', #164, #96, #198 ) ;
#164 = CARTESIAN_POINT ( 'NONE',  ( 0.000000000000000000, 0.000000000000000000, 0.000000000000000000 ) ) ;
#165 = CIRCLE ( 'NONE', #99, 0.2000000000000000944 ) ;
#166 = DIRECTION ( 'NONE',  ( -1.000000000000000000, 1.224646799147353207E-16, 0.000000000000000000 ) ) ;
#167 = DIRECTION ( 'NONE',  ( 1.000000000000000000, 0.000000000000000000, 0.000000000000000000 ) ) ;
#168 = COORDINATED_UNIVERSAL_TIME_OFFSET ( 1, 0, .AHEAD. ) ;
#169 = DATE_AND_TIME ( #245, #105 ) ;
#170 = AXIS2_PLACEMENT_3D ( 'NONE', #207, #138, #233 ) ;
#171 = CARTESIAN_POINT ( 'NONE',  ( 0.000000000000000000, 0.000000000000000000, 1.700000000000007061 ) ) ;
#172 = EDGE_CURVE ( 'NONE', #65, #251, #104, .T. ) ;
#173 = DIRECTION ( 'NONE',  ( -0.000000000000000000, -0.000000000000000000, -1.000000000000000000 ) ) ;
#174 = CC_DESIGN_APPROVAL ( #91, ( #249 ) ) ;
#175 = VERTEX_POINT ( 'NONE', #194 ) ;
#176 = MANIFOLD_SOLID_BREP ( 'Zaoblit1', #297 ) ;
#177 = DIRECTION ( 'NONE',  ( -0.000000000000000000, -0.000000000000000000, -1.000000000000000000 ) ) ;
#178 = VECTOR ( 'NONE', #147, 1000.000000000000000 ) ;
#179 = ADVANCED_FACE ( 'NONE', ( #296 ), #98, .T. ) ;
#180 = EDGE_LOOP ( 'NONE', ( #102, #112, #197, #62 ) ) ;
#181 = CC_DESIGN_APPROVAL ( #232, ( #6 ) ) ;
#182 = DIRECTION ( 'NONE',  ( 0.000000000000000000, 0.000000000000000000, -1.000000000000000000 ) ) ;
#183 = CIRCLE ( 'NONE', #3, 1.500000000000000222 ) ;
#184 = EDGE_CURVE ( 'NONE', #279, #65, #291, .T. ) ;
#185 = CC_DESIGN_PERSON_AND_ORGANIZATION_ASSIGNMENT ( #134, #124, ( #196 ) ) ;
#186 = LOCAL_TIME ( 12, 39, 2.000000000000000000, #115 ) ;
#187 = EDGE_CURVE ( 'NONE', #253, #175, #66, .T. ) ;
#188 = APPLICATION_PROTOCOL_DEFINITION ( 'international standard', 'config_control_design', 1994, #103 ) ;
#189 = DIRECTION ( 'NONE',  ( -0.000000000000000000, -0.000000000000000000, -1.000000000000000000 ) ) ;
#190 = EDGE_CURVE ( 'NONE', #175, #65, #34, .T. ) ;
#191 = CIRCLE ( 'NONE', #63, 0.7500000000000001110 ) ;
#192 = DIRECTION ( 'NONE',  ( 1.000000000000000000, 0.000000000000000000, -0.000000000000000000 ) ) ;
#193 = CYLINDRICAL_SURFACE ( 'NONE', #72, 0.7500000000000001110 ) ;
#194 = CARTESIAN_POINT ( 'NONE',  ( -0.7500000000000001110, 0.000000000000000000, 101.5000000000000000 ) ) ;
#195 = AXIS2_PLACEMENT_3D ( 'NONE', #108, #101, #128 ) ;
#196 = PRODUCT_DEFINITION_FORMATION_WITH_SPECIFIED_SOURCE ( 'LIBOVOLNÝ', '', #13, .NOT_KNOWN. ) ;
#197 = ORIENTED_EDGE ( 'NONE', *, *, #184, .T. ) ;
#198 = DIRECTION ( 'NONE',  ( 1.000000000000000000, 0.000000000000000000, 0.000000000000000000 ) ) ;
#199 = PERSON_AND_ORGANIZATION ( #148, #283 ) ;
#200 = EDGE_CURVE ( 'NONE', #123, #206, #292, .T. ) ;
#201 = DIRECTION ( 'NONE',  ( 1.000000000000000000, 0.000000000000000000, -0.000000000000000000 ) ) ;
#202 = DIRECTION ( 'NONE',  ( 0.000000000000000000, 0.000000000000000000, 1.000000000000000000 ) ) ;
#203 = VERTEX_POINT ( 'NONE', #252 ) ;
#204 = DATE_AND_TIME ( #278, #186 ) ;
#205 = CARTESIAN_POINT ( 'NONE',  ( -0.9500000000000000666, 1.163414459189985682E-16, 1.700000000000007061 ) ) ;
#206 = VERTEX_POINT ( 'NONE', #78 ) ;
#207 = CARTESIAN_POINT ( 'NONE',  ( 0.000000000000000000, 0.000000000000000000, 1.500000000000000000 ) ) ;
#208 = CC_DESIGN_DATE_AND_TIME_ASSIGNMENT ( #295, #220, ( #6 ) ) ;
#209 = ORIENTED_EDGE ( 'NONE', *, *, #94, .F. ) ;
#210 = CARTESIAN_POINT ( 'NONE',  ( 0.000000000000000000, 0.000000000000000000, 0.000000000000000000 ) ) ;
#211 = CIRCLE ( 'NONE', #266, 0.7500000000000001110 ) ;
#212 = ADVANCED_FACE ( 'NONE', ( #44 ), #107, .T. ) ;
#213 = CIRCLE ( 'NONE', #254, 1.500000000000000222 ) ;
#214 = LOCAL_TIME ( 12, 39, 2.000000000000000000, #168 ) ;
#215 = LOCAL_TIME ( 12, 39, 2.000000000000000000, #152 ) ;
#216 = DIRECTION ( 'NONE',  ( -1.000000000000000000, 0.000000000000000000, 0.000000000000000000 ) ) ;
#217 = PERSON_AND_ORGANIZATION_ROLE ( 'creator' ) ;
#218 = CARTESIAN_POINT ( 'NONE',  ( 0.000000000000000000, 0.000000000000000000, 101.5000000000000000 ) ) ;
#219 = EDGE_LOOP ( 'NONE', ( #42, #293, #137, #83 ) ) ;
#220 = DATE_TIME_ROLE ( 'creation_date' ) ;
#221 = DIRECTION ( 'NONE',  ( 1.000000000000000000, 0.000000000000000000, 0.000000000000000000 ) ) ;
#222 =( LENGTH_UNIT ( ) NAMED_UNIT ( * ) SI_UNIT ( .MILLI., .METRE. ) );
#223 = CARTESIAN_POINT ( 'NONE',  ( 0.000000000000000000, 0.000000000000000000, 1.500000000000000000 ) ) ;
#224 = APPLICATION_CONTEXT ( 'configuration controlled 3d designs of mechanical parts and assemblies' ) ;
#225 = CALENDAR_DATE ( 2022, 7, 7 ) ;
#226 = CARTESIAN_POINT ( 'NONE',  ( 0.7500000000000001110, 9.184850993605150903E-17, 101.5000000000000000 ) ) ;
#227 = LINE ( 'NONE', #303, #47 ) ;
#228 = APPROVAL_DATE_TIME ( #204, #141 ) ;
#229 = CARTESIAN_POINT ( 'NONE',  ( -0.7500000000000001110, 0.000000000000000000, 1.700000000000007061 ) ) ;
#230 = DIRECTION ( 'NONE',  ( 0.000000000000000000, 0.000000000000000000, 1.000000000000000000 ) ) ;
#231 = CARTESIAN_POINT ( 'NONE',  ( 0.9500000000000000666, 0.000000000000000000, 1.700000000000007061 ) ) ;
#232 = APPROVAL ( #265, 'NEURÈENÝ' ) ;
#233 = DIRECTION ( 'NONE',  ( -1.000000000000000000, 0.000000000000000000, 0.000000000000000000 ) ) ;
#234 = APPROVAL_PERSON_ORGANIZATION ( #20, #141, #80 ) ;
#235 = CIRCLE ( 'NONE', #280, 0.9500000000000000666 ) ;
#236 = CC_DESIGN_APPROVAL ( #141, ( #196 ) ) ;
#237 = EDGE_LOOP ( 'NONE', ( #284, #157, #260, #16 ) ) ;
#238 = CARTESIAN_POINT ( 'NONE',  ( 0.000000000000000000, 0.000000000000000000, 101.5000000000000000 ) ) ;
#239 = VECTOR ( 'NONE', #173, 1000.000000000000000 ) ;
#240 = CIRCLE ( 'NONE', #52, 0.9500000000000000666 ) ;
#241 = DATE_AND_TIME ( #29, #214 ) ;
#242 = CARTESIAN_POINT ( 'NONE',  ( 0.000000000000000000, 0.000000000000000000, 101.5000000000000000 ) ) ;
#243 = EDGE_LOOP ( 'NONE', ( #8, #129 ) ) ;
#244 = DIRECTION ( 'NONE',  ( 0.000000000000000000, 0.000000000000000000, 1.000000000000000000 ) ) ;
#245 = CALENDAR_DATE ( 2022, 7, 7 ) ;
#246 = DIRECTION ( 'NONE',  ( 0.000000000000000000, 0.000000000000000000, 1.000000000000000000 ) ) ;
#247 = APPROVAL_ROLE ( '' ) ;
#248 = DIRECTION ( 'NONE',  ( -0.000000000000000000, -0.000000000000000000, -1.000000000000000000 ) ) ;
#249 = SECURITY_CLASSIFICATION ( '', '', #127 ) ;
#250 = APPROVAL_PERSON_ORGANIZATION ( #5, #232, #247 ) ;
#251 = VERTEX_POINT ( 'NONE', #12 ) ;
#252 = CARTESIAN_POINT ( 'NONE',  ( 1.500000000000000222, 1.836970198721030181E-16, 0.000000000000000000 ) ) ;
#253 = VERTEX_POINT ( 'NONE', #226 ) ;
#254 = AXIS2_PLACEMENT_3D ( 'NONE', #256, #48, #21 ) ;
#255 = ADVANCED_FACE ( 'NONE', ( #82 ), #11, .F. ) ;
#256 = CARTESIAN_POINT ( 'NONE',  ( 0.000000000000000000, 0.000000000000000000, 1.500000000000000000 ) ) ;
#257 = PRODUCT_RELATED_PRODUCT_CATEGORY ( 'detail', '', ( #13 ) ) ;
#258 = ORIENTED_EDGE ( 'NONE', *, *, #27, .T. ) ;
#259 = CARTESIAN_POINT ( 'NONE',  ( 0.9500000000000000666, 0.000000000000000000, 1.500000000000003553 ) ) ;
#260 = ORIENTED_EDGE ( 'NONE', *, *, #95, .F. ) ;
#261 = UNCERTAINTY_MEASURE_WITH_UNIT (LENGTH_MEASURE( 1.000000000000000082E-05 ), #222, 'distance_accuracy_value', 'NONE');
#262 = CC_DESIGN_SECURITY_CLASSIFICATION ( #249, ( #196 ) ) ;
#263 = ADVANCED_FACE ( 'NONE', ( #36 ), #193, .T. ) ;
#264 =( NAMED_UNIT ( * ) PLANE_ANGLE_UNIT ( ) SI_UNIT ( $, .RADIAN. ) );
#265 = APPROVAL_STATUS ( 'not_yet_approved' ) ;
#266 = AXIS2_PLACEMENT_3D ( 'NONE', #120, #290, #97 ) ;
#267 = CARTESIAN_POINT ( 'NONE',  ( 0.000000000000000000, 0.000000000000000000, 101.5000000000000000 ) ) ;
#268 = DIRECTION ( 'NONE',  ( -1.000000000000000000, 0.000000000000000000, 0.000000000000000000 ) ) ;
#269 = FACE_OUTER_BOUND ( 'NONE', #271, .T. ) ;
#270 = EDGE_CURVE ( 'NONE', #65, #279, #211, .T. ) ;
#271 = EDGE_LOOP ( 'NONE', ( #69, #50 ) ) ;
#272 = PERSON_AND_ORGANIZATION ( #148, #283 ) ;
#273 = SHAPE_DEFINITION_REPRESENTATION ( #150, #81 ) ;
#274 = DIRECTION ( 'NONE',  ( 1.000000000000000000, 0.000000000000000000, 0.000000000000000000 ) ) ;
#275 = DATE_TIME_ROLE ( 'classification_date' ) ;
#276 = CARTESIAN_POINT ( 'NONE',  ( -1.500000000000000222, 0.000000000000000000, 1.500000000000000000 ) ) ;
#277 = ADVANCED_FACE ( 'NONE', ( #4 ), #287, .T. ) ;
#278 = CALENDAR_DATE ( 2022, 7, 7 ) ;
#279 = VERTEX_POINT ( 'NONE', #288 ) ;
#280 = AXIS2_PLACEMENT_3D ( 'NONE', #41, #248, #167 ) ;
#281 = PLANE ( 'NONE',  #26 ) ;
#282 = ORIENTED_EDGE ( 'NONE', *, *, #190, .T. ) ;
#283 = ORGANIZATION ( 'NEURÈENÝ', 'NEURÈENÝ', '' ) ;
#284 = ORIENTED_EDGE ( 'NONE', *, *, #270, .F. ) ;
#285 = EDGE_CURVE ( 'NONE', #251, #35, #240, .T. ) ;
#286 = CC_DESIGN_DATE_AND_TIME_ASSIGNMENT ( #300, #275, ( #249 ) ) ;
#287 = CYLINDRICAL_SURFACE ( 'NONE', #67, 1.500000000000000222 ) ;
#288 = CARTESIAN_POINT ( 'NONE',  ( 0.7500000000000001110, 9.184850993605150903E-17, 1.700000000000007061 ) ) ;
#289 = DIRECTION ( 'NONE',  ( 0.000000000000000000, 0.000000000000000000, 1.000000000000000000 ) ) ;
#290 = DIRECTION ( 'NONE',  ( 0.000000000000000000, 0.000000000000000000, 1.000000000000000000 ) ) ;
#291 = CIRCLE ( 'NONE', #161, 0.7500000000000001110 ) ;
#292 = LINE ( 'NONE', #276, #140 ) ;
#293 = ORIENTED_EDGE ( 'NONE', *, *, #64, .T. ) ;
#294 = PERSON_AND_ORGANIZATION_ROLE ( 'design_owner' ) ;
#295 = DATE_AND_TIME ( #151, #215 ) ;
#296 = FACE_OUTER_BOUND ( 'NONE', #136, .T. ) ;
#297 = CLOSED_SHELL ( 'NONE', ( #25, #212, #37, #277, #119, #74, #263, #179, #255 ) ) ;
#298 = DIRECTION ( 'NONE',  ( 1.000000000000000000, 0.000000000000000000, -0.000000000000000000 ) ) ;
#299 = CC_DESIGN_PERSON_AND_ORGANIZATION_ASSIGNMENT ( #100, #294, ( #13 ) ) ;
#300 = DATE_AND_TIME ( #225, #60 ) ;
#301 = AXIS2_PLACEMENT_3D ( 'NONE', #205, #302, #166 ) ;
#302 = DIRECTION ( 'NONE',  ( 1.224646799147353207E-16, 1.000000000000000000, -0.000000000000000000 ) ) ;
#303 = CARTESIAN_POINT ( 'NONE',  ( 1.500000000000000222, 1.836970198721030181E-16, 1.500000000000000000 ) ) ;
#304 = DIRECTION ( 'NONE',  ( 0.000000000000000000, -1.000000000000000000, 0.000000000000000000 ) ) ;
#305 = VERTEX_POINT ( 'NONE', #28 ) ;
#306 = FACE_OUTER_BOUND ( 'NONE', #237, .T. ) ;
#307 = AXIS2_PLACEMENT_3D ( 'NONE', #242, #246, #221 ) ;
ENDSEC;
END-ISO-10303-21;
