ISO-10303-21;
HEADER;
FILE_DESCRIPTION (( 'STEP AP203' ),
    '1' );
FILE_NAME ('856a.STEP',
    '2022-07-07T10:24:36',
    ( '' ),
    ( '' ),
    'SwSTEP 2.0',
    'SolidWorks 2019',
    '' );
FILE_SCHEMA (( 'CONFIG_CONTROL_DESIGN' ));
ENDSEC;

DATA;
#1 = DIRECTION ( 'NONE',  ( -0.000000000000000000, -0.000000000000000000, -1.000000000000000000 ) ) ;
#2 = AXIS2_PLACEMENT_3D ( 'NONE', #244, #30, #219 ) ;
#3 = EDGE_LOOP ( 'NONE', ( #199, #119, #288, #27 ) ) ;
#4 = LOCAL_TIME ( 12, 24, 36.00000000000000000, #112 ) ;
#5 = EDGE_CURVE ( 'NONE', #111, #266, #150, .T. ) ;
#6 = EDGE_LOOP ( 'NONE', ( #144, #299, #81, #192 ) ) ;
#7 = FACE_BOUND ( 'NONE', #156, .T. ) ;
#8 = CIRCLE ( 'NONE', #201, 2.100000000000000089 ) ;
#9 = CARTESIAN_POINT ( 'NONE',  ( 0.000000000000000000, 0.000000000000000000, 0.000000000000000000 ) ) ;
#10 = CARTESIAN_POINT ( 'NONE',  ( 4.000000000000000000, 4.898587196589412829E-16, 3.000000000000000000 ) ) ;
#11 = CARTESIAN_POINT ( 'NONE',  ( -4.000000000000000000, 0.000000000000000000, 3.000000000000000000 ) ) ;
#12 = CARTESIAN_POINT ( 'NONE',  ( 0.000000000000000000, 0.000000000000000000, 3.000000000000000000 ) ) ;
#13 = LINE ( 'NONE', #38, #47 ) ;
#14 = SECURITY_CLASSIFICATION ( '', '', #40 ) ;
#15 = EDGE_CURVE ( 'NONE', #121, #225, #182, .T. ) ;
#16 = DIRECTION ( 'NONE',  ( 0.000000000000000000, 0.000000000000000000, 1.000000000000000000 ) ) ;
#17 = EDGE_LOOP ( 'NONE', ( #252, #131, #249, #215 ) ) ;
#18 = PERSON_AND_ORGANIZATION_ROLE ( 'creator' ) ;
#19 = PRODUCT_DEFINITION ( 'NEZNÁMÝ', '', #285, #52 ) ;
#20 = AXIS2_PLACEMENT_3D ( 'NONE', #196, #269, #75 ) ;
#21 = DATE_TIME_ROLE ( 'classification_date' ) ;
#22 = CARTESIAN_POINT ( 'NONE',  ( 2.100000000000000089, 2.571758278209441957E-16, 128.0000000000000000 ) ) ;
#23 = APPROVAL_ROLE ( '' ) ;
#24 = APPLICATION_PROTOCOL_DEFINITION ( 'international standard', 'config_control_design', 1994, #34 ) ;
#25 = CARTESIAN_POINT ( 'NONE',  ( 0.000000000000000000, 0.000000000000000000, 3.199999999999994404 ) ) ;
#26 = ORIENTED_EDGE ( 'NONE', *, *, #15, .T. ) ;
#27 = ORIENTED_EDGE ( 'NONE', *, *, #177, .F. ) ;
#28 = VECTOR ( 'NONE', #137, 1000.000000000000000 ) ;
#29 = CARTESIAN_POINT ( 'NONE',  ( -4.000000000000000000, 0.000000000000000000, 0.000000000000000000 ) ) ;
#30 = DIRECTION ( 'NONE',  ( 0.000000000000000000, 0.000000000000000000, 1.000000000000000000 ) ) ;
#31 = CARTESIAN_POINT ( 'NONE',  ( 0.000000000000000000, 0.000000000000000000, 3.000000000000000000 ) ) ;
#32 = CARTESIAN_POINT ( 'NONE',  ( -2.100000000000000089, 0.000000000000000000, 128.0000000000000000 ) ) ;
#33 = PLANE ( 'NONE',  #124 ) ;
#34 = APPLICATION_CONTEXT ( 'configuration controlled 3d designs of mechanical parts and assemblies' ) ;
#35 = ORIENTED_EDGE ( 'NONE', *, *, #200, .T. ) ;
#36 = APPROVAL ( #185, 'NEURÈENÝ' ) ;
#37 = DIRECTION ( 'NONE',  ( 1.000000000000000000, 0.000000000000000000, 0.000000000000000000 ) ) ;
#38 = CARTESIAN_POINT ( 'NONE',  ( -2.100000000000000089, 0.000000000000000000, 128.0000000000000000 ) ) ;
#39 = ORIENTED_EDGE ( 'NONE', *, *, #177, .T. ) ;
#40 = SECURITY_CLASSIFICATION_LEVEL ( 'unclassified' ) ;
#41 = CYLINDRICAL_SURFACE ( 'NONE', #95, 2.100000000000000089 ) ;
#42 = AXIS2_PLACEMENT_3D ( 'NONE', #68, #97, #256 ) ;
#43 = DIRECTION ( 'NONE',  ( -0.000000000000000000, -0.000000000000000000, -1.000000000000000000 ) ) ;
#44 = CALENDAR_DATE ( 2022, 7, 7 ) ;
#45 = DIRECTION ( 'NONE',  ( -1.000000000000000000, 0.000000000000000000, 0.000000000000000000 ) ) ;
#46 = CALENDAR_DATE ( 2022, 7, 7 ) ;
#47 = VECTOR ( 'NONE', #109, 1000.000000000000000 ) ;
#48 = AXIS2_PLACEMENT_3D ( 'NONE', #12, #107, #195 ) ;
#49 = ORIENTED_EDGE ( 'NONE', *, *, #184, .T. ) ;
#50 = EDGE_LOOP ( 'NONE', ( #237, #84 ) ) ;
#51 = CARTESIAN_POINT ( 'NONE',  ( -2.100000000000000089, 0.000000000000000000, 3.199999999999994404 ) ) ;
#52 = DESIGN_CONTEXT ( 'detailed design', #34, 'design' ) ;
#53 = FACE_OUTER_BOUND ( 'NONE', #213, .T. ) ;
#54 = DIRECTION ( 'NONE',  ( -0.000000000000000000, -0.000000000000000000, -1.000000000000000000 ) ) ;
#55 = DIRECTION ( 'NONE',  ( 0.000000000000000000, 0.000000000000000000, 1.000000000000000000 ) ) ;
#56 = ADVANCED_FACE ( 'NONE', ( #130 ), #33, .T. ) ;
#57 = PLANE ( 'NONE',  #267 ) ;
#58 = APPROVAL ( #261, 'NEURÈENÝ' ) ;
#59 = ORIENTED_EDGE ( 'NONE', *, *, #287, .F. ) ;
#60 = DIRECTION ( 'NONE',  ( 0.000000000000000000, -1.000000000000000000, 0.000000000000000000 ) ) ;
#61 = CARTESIAN_POINT ( 'NONE',  ( 0.000000000000000000, 0.000000000000000000, 128.0000000000000000 ) ) ;
#62 = APPROVAL_DATE_TIME ( #85, #78 ) ;
#63 = LINE ( 'NONE', #186, #28 ) ;
#64 = DATE_AND_TIME ( #46, #259 ) ;
#65 = APPROVAL_PERSON_ORGANIZATION ( #157, #78, #23 ) ;
#66 = CARTESIAN_POINT ( 'NONE',  ( 0.000000000000000000, 0.000000000000000000, 128.0000000000000000 ) ) ;
#67 = ADVANCED_FACE ( 'NONE', ( #154 ), #57, .F. ) ;
#68 = CARTESIAN_POINT ( 'NONE',  ( -2.300000000000000266, 2.816687638038912549E-16, 3.199999999999994404 ) ) ;
#69 = CYLINDRICAL_SURFACE ( 'NONE', #211, 2.100000000000000089 ) ;
#70 = CC_DESIGN_PERSON_AND_ORGANIZATION_ASSIGNMENT ( #282, #279, ( #208 ) ) ;
#71 = AXIS2_PLACEMENT_3D ( 'NONE', #25, #117, #212 ) ;
#72 = ORIENTED_EDGE ( 'NONE', *, *, #138, .F. ) ;
#73 = VERTEX_POINT ( 'NONE', #11 ) ;
#74 = DIRECTION ( 'NONE',  ( -1.000000000000000000, 0.000000000000000000, 0.000000000000000000 ) ) ;
#75 = DIRECTION ( 'NONE',  ( 1.000000000000000000, 0.000000000000000000, 0.000000000000000000 ) ) ;
#76 = EDGE_CURVE ( 'NONE', #204, #223, #228, .T. ) ;
#77 = DIRECTION ( 'NONE',  ( -0.000000000000000000, -0.000000000000000000, -1.000000000000000000 ) ) ;
#78 = APPROVAL ( #232, 'NEURÈENÝ' ) ;
#79 = APPROVAL_PERSON_ORGANIZATION ( #258, #58, #262 ) ;
#80 = DIRECTION ( 'NONE',  ( 1.000000000000000000, 0.000000000000000000, -0.000000000000000000 ) ) ;
#81 = ORIENTED_EDGE ( 'NONE', *, *, #138, .T. ) ;
#82 = CARTESIAN_POINT ( 'NONE',  ( 2.100000000000000089, 2.571758278209441957E-16, 3.199999999999994404 ) ) ;
#83 = ORIENTED_EDGE ( 'NONE', *, *, #116, .T. ) ;
#84 = ORIENTED_EDGE ( 'NONE', *, *, #291, .T. ) ;
#85 = DATE_AND_TIME ( #300, #169 ) ;
#86 = TOROIDAL_SURFACE ( 'NONE', #263, 2.300000000000000266, 0.2000000000000000111 ) ;
#87 = PERSON_AND_ORGANIZATION ( #306, #214 ) ;
#88 = COORDINATED_UNIVERSAL_TIME_OFFSET ( 1, 0, .AHEAD. ) ;
#89 =( NAMED_UNIT ( * ) PLANE_ANGLE_UNIT ( ) SI_UNIT ( $, .RADIAN. ) );
#90 = APPROVAL_ROLE ( '' ) ;
#91 = EDGE_CURVE ( 'NONE', #111, #121, #13, .T. ) ;
#92 = APPLICATION_PROTOCOL_DEFINITION ( 'international standard', 'config_control_design', 1994, #226 ) ;
#93 = CC_DESIGN_DATE_AND_TIME_ASSIGNMENT ( #230, #21, ( #14 ) ) ;
#94 = CLOSED_SHELL ( 'NONE', ( #187, #236, #101, #166, #231, #67, #303, #56, #127 ) ) ;
#95 = AXIS2_PLACEMENT_3D ( 'NONE', #66, #1, #45 ) ;
#96 = CARTESIAN_POINT ( 'NONE',  ( 0.000000000000000000, 0.000000000000000000, 0.000000000000000000 ) ) ;
#97 = DIRECTION ( 'NONE',  ( 1.224646799147353207E-16, 1.000000000000000000, -0.000000000000000000 ) ) ;
#98 = AXIS2_PLACEMENT_3D ( 'NONE', #174, #152, #178 ) ;
#99 = ORIENTED_EDGE ( 'NONE', *, *, #76, .T. ) ;
#100 = ORIENTED_EDGE ( 'NONE', *, *, #155, .F. ) ;
#101 = ADVANCED_FACE ( 'NONE', ( #298 ), #102, .T. ) ;
#102 = CYLINDRICAL_SURFACE ( 'NONE', #289, 4.000000000000000000 ) ;
#103 = FACE_OUTER_BOUND ( 'NONE', #110, .T. ) ;
#104 = UNCERTAINTY_MEASURE_WITH_UNIT (LENGTH_MEASURE( 1.000000000000000082E-05 ), #277, 'distance_accuracy_value', 'NONE');
#105 = CARTESIAN_POINT ( 'NONE',  ( 0.000000000000000000, 0.000000000000000000, 3.000000000000000000 ) ) ;
#106 = DIRECTION ( 'NONE',  ( 1.000000000000000000, 0.000000000000000000, -0.000000000000000000 ) ) ;
#107 = DIRECTION ( 'NONE',  ( 0.000000000000000000, 0.000000000000000000, 1.000000000000000000 ) ) ;
#108 = APPROVAL_PERSON_ORGANIZATION ( #87, #36, #90 ) ;
#109 = DIRECTION ( 'NONE',  ( -0.000000000000000000, -0.000000000000000000, -1.000000000000000000 ) ) ;
#110 = EDGE_LOOP ( 'NONE', ( #83, #49 ) ) ;
#111 = VERTEX_POINT ( 'NONE', #32 ) ;
#112 = COORDINATED_UNIVERSAL_TIME_OFFSET ( 1, 0, .AHEAD. ) ;
#113 = CC_DESIGN_SECURITY_CLASSIFICATION ( #14, ( #285 ) ) ;
#114 = LOCAL_TIME ( 12, 24, 36.00000000000000000, #88 ) ;
#115 = DATE_AND_TIME ( #257, #139 ) ;
#116 = EDGE_CURVE ( 'NONE', #73, #168, #193, .T. ) ;
#117 = DIRECTION ( 'NONE',  ( 0.000000000000000000, 0.000000000000000000, 1.000000000000000000 ) ) ;
#118 = AXIS2_PLACEMENT_3D ( 'NONE', #105, #77, #37 ) ;
#119 = ORIENTED_EDGE ( 'NONE', *, *, #287, .T. ) ;
#120 = CIRCLE ( 'NONE', #172, 0.2000000000000000944 ) ;
#121 = VERTEX_POINT ( 'NONE', #51 ) ;
#122 = CC_DESIGN_PERSON_AND_ORGANIZATION_ASSIGNMENT ( #227, #158, ( #14 ) ) ;
#123 = DIRECTION ( 'NONE',  ( 0.000000000000000000, 0.000000000000000000, -1.000000000000000000 ) ) ;
#124 = AXIS2_PLACEMENT_3D ( 'NONE', #133, #224, #80 ) ;
#125 = DIRECTION ( 'NONE',  ( 0.000000000000000000, 0.000000000000000000, 1.000000000000000000 ) ) ;
#126 = VECTOR ( 'NONE', #216, 1000.000000000000000 ) ;
#127 = ADVANCED_FACE ( 'NONE', ( #171 ), #86, .F. ) ;
#128 = DIRECTION ( 'NONE',  ( -0.000000000000000000, -0.000000000000000000, -1.000000000000000000 ) ) ;
#129 = PLANE ( 'NONE',  #48 ) ;
#130 = FACE_OUTER_BOUND ( 'NONE', #50, .T. ) ;
#131 = ORIENTED_EDGE ( 'NONE', *, *, #155, .T. ) ;
#132 = AXIS2_PLACEMENT_3D ( 'NONE', #198, #294, #251 ) ;
#133 = CARTESIAN_POINT ( 'NONE',  ( 0.000000000000000000, 0.000000000000000000, 128.0000000000000000 ) ) ;
#134 = ORIENTED_EDGE ( 'NONE', *, *, #116, .F. ) ;
#135 = PERSON_AND_ORGANIZATION_ROLE ( 'creator' ) ;
#136 = COORDINATED_UNIVERSAL_TIME_OFFSET ( 1, 0, .AHEAD. ) ;
#137 = DIRECTION ( 'NONE',  ( -0.000000000000000000, -0.000000000000000000, -1.000000000000000000 ) ) ;
#138 = EDGE_CURVE ( 'NONE', #225, #204, #120, .T. ) ;
#139 = LOCAL_TIME ( 12, 24, 36.00000000000000000, #209 ) ;
#140 = DIRECTION ( 'NONE',  ( -1.000000000000000000, 0.000000000000000000, 0.000000000000000000 ) ) ;
#141 = MANIFOLD_SOLID_BREP ( 'Zaoblit1', #94 ) ;
#142 = DIRECTION ( 'NONE',  ( 0.000000000000000000, 0.000000000000000000, 1.000000000000000000 ) ) ;
#143 = CC_DESIGN_APPROVAL ( #58, ( #19 ) ) ;
#144 = ORIENTED_EDGE ( 'NONE', *, *, #275, .F. ) ;
#145 = ORIENTED_EDGE ( 'NONE', *, *, #189, .T. ) ;
#146 = EDGE_CURVE ( 'NONE', #248, #190, #264, .T. ) ;
#147 = CC_DESIGN_PERSON_AND_ORGANIZATION_ASSIGNMENT ( #260, #18, ( #285 ) ) ;
#148 = CYLINDRICAL_SURFACE ( 'NONE', #194, 4.000000000000000000 ) ;
#149 = CARTESIAN_POINT ( 'NONE',  ( 0.000000000000000000, 0.000000000000000000, 3.000000000000000000 ) ) ;
#150 = CIRCLE ( 'NONE', #301, 2.100000000000000089 ) ;
#151 = LINE ( 'NONE', #173, #188 ) ;
#152 = DIRECTION ( 'NONE',  ( -0.000000000000000000, -0.000000000000000000, -1.000000000000000000 ) ) ;
#153 = DIRECTION ( 'NONE',  ( 1.000000000000000000, 0.000000000000000000, 0.000000000000000000 ) ) ;
#154 = FACE_OUTER_BOUND ( 'NONE', #238, .T. ) ;
#155 = EDGE_CURVE ( 'NONE', #266, #225, #151, .T. ) ;
#156 = EDGE_LOOP ( 'NONE', ( #99, #145 ) ) ;
#157 = PERSON_AND_ORGANIZATION ( #306, #214 ) ;
#158 = PERSON_AND_ORGANIZATION_ROLE ( 'classification_officer' ) ;
#159 =( NAMED_UNIT ( * ) SI_UNIT ( $, .STERADIAN. ) SOLID_ANGLE_UNIT ( ) );
#160 = DIRECTION ( 'NONE',  ( 1.000000000000000000, 0.000000000000000000, 0.000000000000000000 ) ) ;
#161 = CIRCLE ( 'NONE', #42, 0.2000000000000000944 ) ;
#162 = MECHANICAL_CONTEXT ( 'NONE', #226, 'mechanical' ) ;
#163 = CARTESIAN_POINT ( 'NONE',  ( 4.000000000000000000, 4.898587196589412829E-16, 0.000000000000000000 ) ) ;
#164 = CC_DESIGN_APPROVAL ( #78, ( #285 ) ) ;
#165 = ORIENTED_EDGE ( 'NONE', *, *, #275, .T. ) ;
#166 = ADVANCED_FACE ( 'NONE', ( #53 ), #148, .T. ) ;
#167 = ORIENTED_EDGE ( 'NONE', *, *, #5, .F. ) ;
#168 = VERTEX_POINT ( 'NONE', #10 ) ;
#169 = LOCAL_TIME ( 12, 24, 36.00000000000000000, #136 ) ;
#170 = CARTESIAN_POINT ( 'NONE',  ( 0.000000000000000000, 0.000000000000000000, 3.199999999999994404 ) ) ;
#171 = FACE_OUTER_BOUND ( 'NONE', #6, .T. ) ;
#172 = AXIS2_PLACEMENT_3D ( 'NONE', #247, #60, #123 ) ;
#173 = CARTESIAN_POINT ( 'NONE',  ( 2.100000000000000089, 2.571758278209441957E-16, 128.0000000000000000 ) ) ;
#174 = CARTESIAN_POINT ( 'NONE',  ( 0.000000000000000000, 0.000000000000000000, 3.000000000000000000 ) ) ;
#175 = ORIENTED_EDGE ( 'NONE', *, *, #76, .F. ) ;
#176 = CARTESIAN_POINT ( 'NONE',  ( 0.000000000000000000, 0.000000000000000000, 3.199999999999994404 ) ) ;
#177 = EDGE_CURVE ( 'NONE', #73, #190, #241, .T. ) ;
#178 = DIRECTION ( 'NONE',  ( 1.000000000000000000, 0.000000000000000000, 0.000000000000000000 ) ) ;
#179 = CC_DESIGN_PERSON_AND_ORGANIZATION_ASSIGNMENT ( #254, #280, ( #285 ) ) ;
#180 = ORIENTED_EDGE ( 'NONE', *, *, #146, .F. ) ;
#181 = APPROVAL_DATE_TIME ( #64, #58 ) ;
#182 = CIRCLE ( 'NONE', #132, 2.100000000000000089 ) ;
#183 = AXIS2_PLACEMENT_3D ( 'NONE', #176, #250, #240 ) ;
#184 = EDGE_CURVE ( 'NONE', #168, #73, #253, .T. ) ;
#185 = APPROVAL_STATUS ( 'not_yet_approved' ) ;
#186 = CARTESIAN_POINT ( 'NONE',  ( 4.000000000000000000, 4.898587196589412829E-16, 3.000000000000000000 ) ) ;
#187 = ADVANCED_FACE ( 'NONE', ( #218 ), #243, .F. ) ;
#188 = VECTOR ( 'NONE', #54, 1000.000000000000000 ) ;
#189 = EDGE_CURVE ( 'NONE', #223, #204, #295, .T. ) ;
#190 = VERTEX_POINT ( 'NONE', #29 ) ;
#191 = CC_DESIGN_DATE_AND_TIME_ASSIGNMENT ( #115, #304, ( #19 ) ) ;
#192 = ORIENTED_EDGE ( 'NONE', *, *, #189, .F. ) ;
#193 = CIRCLE ( 'NONE', #217, 4.000000000000000000 ) ;
#194 = AXIS2_PLACEMENT_3D ( 'NONE', #149, #271, #221 ) ;
#195 = DIRECTION ( 'NONE',  ( 1.000000000000000000, 0.000000000000000000, -0.000000000000000000 ) ) ;
#196 = CARTESIAN_POINT ( 'NONE',  ( 0.000000000000000000, 0.000000000000000000, 0.000000000000000000 ) ) ;
#197 = DIRECTION ( 'NONE',  ( 1.000000000000000000, 0.000000000000000000, 0.000000000000000000 ) ) ;
#198 = CARTESIAN_POINT ( 'NONE',  ( 0.000000000000000000, 0.000000000000000000, 3.199999999999994404 ) ) ;
#199 = ORIENTED_EDGE ( 'NONE', *, *, #184, .F. ) ;
#200 = EDGE_CURVE ( 'NONE', #190, #248, #207, .T. ) ;
#201 = AXIS2_PLACEMENT_3D ( 'NONE', #234, #142, #160 ) ;
#202 = DIRECTION ( 'NONE',  ( 0.000000000000000000, 0.000000000000000000, 1.000000000000000000 ) ) ;
#203 = DIRECTION ( 'NONE',  ( 1.000000000000000000, 0.000000000000000000, 0.000000000000000000 ) ) ;
#204 = VERTEX_POINT ( 'NONE', #293 ) ;
#205 = SHAPE_DEFINITION_REPRESENTATION ( #284, #246 ) ;
#206 = APPROVAL_DATE_TIME ( #276, #36 ) ;
#207 = CIRCLE ( 'NONE', #229, 4.000000000000000000 ) ;
#208 = PRODUCT ( '856a', '856a', '', ( #162 ) ) ;
#209 = COORDINATED_UNIVERSAL_TIME_OFFSET ( 1, 0, .AHEAD. ) ;
#210 = COORDINATED_UNIVERSAL_TIME_OFFSET ( 1, 0, .AHEAD. ) ;
#211 = AXIS2_PLACEMENT_3D ( 'NONE', #305, #43, #140 ) ;
#212 = DIRECTION ( 'NONE',  ( 1.000000000000000000, 0.000000000000000000, 0.000000000000000000 ) ) ;
#213 = EDGE_LOOP ( 'NONE', ( #59, #134, #39, #35 ) ) ;
#214 = ORGANIZATION ( 'NEURÈENÝ', 'NEURÈENÝ', '' ) ;
#215 = ORIENTED_EDGE ( 'NONE', *, *, #91, .F. ) ;
#216 = DIRECTION ( 'NONE',  ( -0.000000000000000000, -0.000000000000000000, -1.000000000000000000 ) ) ;
#217 = AXIS2_PLACEMENT_3D ( 'NONE', #268, #125, #153 ) ;
#218 = FACE_OUTER_BOUND ( 'NONE', #274, .T. ) ;
#219 = DIRECTION ( 'NONE',  ( 1.000000000000000000, 0.000000000000000000, 0.000000000000000000 ) ) ;
#220 = CC_DESIGN_PERSON_AND_ORGANIZATION_ASSIGNMENT ( #255, #135, ( #19 ) ) ;
#221 = DIRECTION ( 'NONE',  ( -1.000000000000000000, 0.000000000000000000, 0.000000000000000000 ) ) ;
#222 = DIRECTION ( 'NONE',  ( 0.000000000000000000, 0.000000000000000000, 1.000000000000000000 ) ) ;
#223 = VERTEX_POINT ( 'NONE', #292 ) ;
#224 = DIRECTION ( 'NONE',  ( 0.000000000000000000, 0.000000000000000000, 1.000000000000000000 ) ) ;
#225 = VERTEX_POINT ( 'NONE', #82 ) ;
#226 = APPLICATION_CONTEXT ( 'configuration controlled 3d designs of mechanical parts and assemblies' ) ;
#227 = PERSON_AND_ORGANIZATION ( #306, #214 ) ;
#228 = CIRCLE ( 'NONE', #98, 2.300000000000000266 ) ;
#229 = AXIS2_PLACEMENT_3D ( 'NONE', #9, #202, #197 ) ;
#230 = DATE_AND_TIME ( #44, #114 ) ;
#231 = ADVANCED_FACE ( 'NONE', ( #7, #103 ), #129, .T. ) ;
#232 = APPROVAL_STATUS ( 'not_yet_approved' ) ;
#233 = PRODUCT_RELATED_PRODUCT_CATEGORY ( 'detail', '', ( #208 ) ) ;
#234 = CARTESIAN_POINT ( 'NONE',  ( 0.000000000000000000, 0.000000000000000000, 128.0000000000000000 ) ) ;
#235 = FACE_OUTER_BOUND ( 'NONE', #17, .T. ) ;
#236 = ADVANCED_FACE ( 'NONE', ( #235 ), #69, .T. ) ;
#237 = ORIENTED_EDGE ( 'NONE', *, *, #5, .T. ) ;
#238 = EDGE_LOOP ( 'NONE', ( #296, #180 ) ) ;
#239 =( GEOMETRIC_REPRESENTATION_CONTEXT ( 3 ) GLOBAL_UNCERTAINTY_ASSIGNED_CONTEXT ( ( #104 ) ) GLOBAL_UNIT_ASSIGNED_CONTEXT ( ( #277, #89, #159 ) ) REPRESENTATION_CONTEXT ( 'NONE', 'WORKASPACE' ) );
#240 = DIRECTION ( 'NONE',  ( 1.000000000000000000, 0.000000000000000000, 0.000000000000000000 ) ) ;
#241 = LINE ( 'NONE', #297, #126 ) ;
#242 = CC_DESIGN_APPROVAL ( #36, ( #14 ) ) ;
#243 = TOROIDAL_SURFACE ( 'NONE', #183, 2.300000000000000266, 0.2000000000000000111 ) ;
#244 = CARTESIAN_POINT ( 'NONE',  ( 0.000000000000000000, 0.000000000000000000, 3.000000000000000000 ) ) ;
#245 = EDGE_CURVE ( 'NONE', #225, #121, #302, .T. ) ;
#246 = ADVANCED_BREP_SHAPE_REPRESENTATION ( '856a', ( #141, #270 ), #239 ) ;
#247 = CARTESIAN_POINT ( 'NONE',  ( 2.300000000000000266, 0.000000000000000000, 3.199999999999994404 ) ) ;
#248 = VERTEX_POINT ( 'NONE', #163 ) ;
#249 = ORIENTED_EDGE ( 'NONE', *, *, #245, .T. ) ;
#250 = DIRECTION ( 'NONE',  ( 0.000000000000000000, 0.000000000000000000, 1.000000000000000000 ) ) ;
#251 = DIRECTION ( 'NONE',  ( 1.000000000000000000, 0.000000000000000000, 0.000000000000000000 ) ) ;
#252 = ORIENTED_EDGE ( 'NONE', *, *, #291, .F. ) ;
#253 = CIRCLE ( 'NONE', #2, 4.000000000000000000 ) ;
#254 = PERSON_AND_ORGANIZATION ( #306, #214 ) ;
#255 = PERSON_AND_ORGANIZATION ( #306, #214 ) ;
#256 = DIRECTION ( 'NONE',  ( -1.000000000000000000, 1.224646799147353207E-16, 0.000000000000000000 ) ) ;
#257 = CALENDAR_DATE ( 2022, 7, 7 ) ;
#258 = PERSON_AND_ORGANIZATION ( #306, #214 ) ;
#259 = LOCAL_TIME ( 12, 24, 36.00000000000000000, #210 ) ;
#260 = PERSON_AND_ORGANIZATION ( #306, #214 ) ;
#261 = APPROVAL_STATUS ( 'not_yet_approved' ) ;
#262 = APPROVAL_ROLE ( '' ) ;
#263 = AXIS2_PLACEMENT_3D ( 'NONE', #170, #55, #290 ) ;
#264 = CIRCLE ( 'NONE', #20, 4.000000000000000000 ) ;
#265 = EDGE_LOOP ( 'NONE', ( #100, #167, #286, #26 ) ) ;
#266 = VERTEX_POINT ( 'NONE', #22 ) ;
#267 = AXIS2_PLACEMENT_3D ( 'NONE', #273, #16, #106 ) ;
#268 = CARTESIAN_POINT ( 'NONE',  ( 0.000000000000000000, 0.000000000000000000, 3.000000000000000000 ) ) ;
#269 = DIRECTION ( 'NONE',  ( 0.000000000000000000, 0.000000000000000000, 1.000000000000000000 ) ) ;
#270 = AXIS2_PLACEMENT_3D ( 'NONE', #96, #307, #283 ) ;
#271 = DIRECTION ( 'NONE',  ( -0.000000000000000000, -0.000000000000000000, -1.000000000000000000 ) ) ;
#272 = ORIENTED_EDGE ( 'NONE', *, *, #15, .F. ) ;
#273 = CARTESIAN_POINT ( 'NONE',  ( 0.000000000000000000, 0.000000000000000000, 0.000000000000000000 ) ) ;
#274 = EDGE_LOOP ( 'NONE', ( #272, #165, #175, #72 ) ) ;
#275 = EDGE_CURVE ( 'NONE', #121, #223, #161, .T. ) ;
#276 = DATE_AND_TIME ( #278, #4 ) ;
#277 =( LENGTH_UNIT ( ) NAMED_UNIT ( * ) SI_UNIT ( .MILLI., .METRE. ) );
#278 = CALENDAR_DATE ( 2022, 7, 7 ) ;
#279 = PERSON_AND_ORGANIZATION_ROLE ( 'design_owner' ) ;
#280 = PERSON_AND_ORGANIZATION_ROLE ( 'design_supplier' ) ;
#281 = FACE_OUTER_BOUND ( 'NONE', #265, .T. ) ;
#282 = PERSON_AND_ORGANIZATION ( #306, #214 ) ;
#283 = DIRECTION ( 'NONE',  ( 1.000000000000000000, 0.000000000000000000, 0.000000000000000000 ) ) ;
#284 = PRODUCT_DEFINITION_SHAPE ( 'NONE', 'NONE',  #19 ) ;
#285 = PRODUCT_DEFINITION_FORMATION_WITH_SPECIFIED_SOURCE ( 'LIBOVOLNÝ', '', #208, .NOT_KNOWN. ) ;
#286 = ORIENTED_EDGE ( 'NONE', *, *, #91, .T. ) ;
#287 = EDGE_CURVE ( 'NONE', #168, #248, #63, .T. ) ;
#288 = ORIENTED_EDGE ( 'NONE', *, *, #146, .T. ) ;
#289 = AXIS2_PLACEMENT_3D ( 'NONE', #31, #128, #74 ) ;
#290 = DIRECTION ( 'NONE',  ( 1.000000000000000000, 0.000000000000000000, 0.000000000000000000 ) ) ;
#291 = EDGE_CURVE ( 'NONE', #266, #111, #8, .T. ) ;
#292 = CARTESIAN_POINT ( 'NONE',  ( -2.300000000000000266, 2.816687638038912549E-16, 2.999999999999997335 ) ) ;
#293 = CARTESIAN_POINT ( 'NONE',  ( 2.300000000000000266, 0.000000000000000000, 2.999999999999997335 ) ) ;
#294 = DIRECTION ( 'NONE',  ( 0.000000000000000000, 0.000000000000000000, 1.000000000000000000 ) ) ;
#295 = CIRCLE ( 'NONE', #118, 2.300000000000000266 ) ;
#296 = ORIENTED_EDGE ( 'NONE', *, *, #200, .F. ) ;
#297 = CARTESIAN_POINT ( 'NONE',  ( -4.000000000000000000, 0.000000000000000000, 3.000000000000000000 ) ) ;
#298 = FACE_OUTER_BOUND ( 'NONE', #3, .T. ) ;
#299 = ORIENTED_EDGE ( 'NONE', *, *, #245, .F. ) ;
#300 = CALENDAR_DATE ( 2022, 7, 7 ) ;
#301 = AXIS2_PLACEMENT_3D ( 'NONE', #61, #222, #203 ) ;
#302 = CIRCLE ( 'NONE', #71, 2.100000000000000089 ) ;
#303 = ADVANCED_FACE ( 'NONE', ( #281 ), #41, .T. ) ;
#304 = DATE_TIME_ROLE ( 'creation_date' ) ;
#305 = CARTESIAN_POINT ( 'NONE',  ( 0.000000000000000000, 0.000000000000000000, 128.0000000000000000 ) ) ;
#306 = PERSON ( 'NEURÈENÝ', 'NEURÈENÝ', 'NEURÈENÝ', ('NEURÈENÝ'), ('NEURÈENÝ'), ('NEURÈENÝ') ) ;
#307 = DIRECTION ( 'NONE',  ( 0.000000000000000000, 0.000000000000000000, 1.000000000000000000 ) ) ;
ENDSEC;
END-ISO-10303-21;
