ISO-10303-21;
HEADER;
FILE_DESCRIPTION (( 'STEP AP203' ),
    '1' );
FILE_NAME ('d18a.STEP',
    '2022-07-07T09:30:00',
    ( '' ),
    ( '' ),
    'SwSTEP 2.0',
    'SolidWorks 2019',
    '' );
FILE_SCHEMA (( 'CONFIG_CONTROL_DESIGN' ));
ENDSEC;

DATA;
#1 = PLANE ( 'NONE',  #158 ) ;
#2 = CARTESIAN_POINT ( 'NONE',  ( 16.00000000000000000, 1.959434878635765131E-15, 170.0000000000000000 ) ) ;
#3 = COORDINATED_UNIVERSAL_TIME_OFFSET ( 1, 0, .AHEAD. ) ;
#4 = AXIS2_PLACEMENT_3D ( 'NONE', #252, #67, #188 ) ;
#5 = VERTEX_POINT ( 'NONE', #151 ) ;
#6 = APPROVAL ( #278, 'NEURÈENÝ' ) ;
#7 = ORIENTED_EDGE ( 'NONE', *, *, #284, .T. ) ;
#8 = CARTESIAN_POINT ( 'NONE',  ( 0.000000000000000000, 0.000000000000000000, 10.20000000000001528 ) ) ;
#9 = VECTOR ( 'NONE', #263, 1000.000000000000000 ) ;
#10 = CYLINDRICAL_SURFACE ( 'NONE', #69, 20.00000000000000000 ) ;
#11 = CARTESIAN_POINT ( 'NONE',  ( 0.000000000000000000, 0.000000000000000000, 0.000000000000000000 ) ) ;
#12 = APPROVAL_PERSON_ORGANIZATION ( #257, #6, #41 ) ;
#13 = VERTEX_POINT ( 'NONE', #76 ) ;
#14 = CYLINDRICAL_SURFACE ( 'NONE', #286, 16.00000000000000000 ) ;
#15 = DIRECTION ( 'NONE',  ( 1.000000000000000000, 0.000000000000000000, 0.000000000000000000 ) ) ;
#16 = DIRECTION ( 'NONE',  ( -0.000000000000000000, -0.000000000000000000, -1.000000000000000000 ) ) ;
#17 = SHAPE_DEFINITION_REPRESENTATION ( #156, #280 ) ;
#18 = CIRCLE ( 'NONE', #195, 20.00000000000000000 ) ;
#19 = FACE_OUTER_BOUND ( 'NONE', #137, .T. ) ;
#20 = APPROVAL_PERSON_ORGANIZATION ( #78, #142, #249 ) ;
#21 = DIRECTION ( 'NONE',  ( 0.000000000000000000, 0.000000000000000000, 1.000000000000000000 ) ) ;
#22 = EDGE_CURVE ( 'NONE', #203, #56, #116, .T. ) ;
#23 = ADVANCED_FACE ( 'NONE', ( #50 ), #303, .F. ) ;
#24 = AXIS2_PLACEMENT_3D ( 'NONE', #39, #269, #15 ) ;
#25 = APPLICATION_CONTEXT ( 'configuration controlled 3d designs of mechanical parts and assemblies' ) ;
#26 = APPLICATION_CONTEXT ( 'configuration controlled 3d designs of mechanical parts and assemblies' ) ;
#27 = DIRECTION ( 'NONE',  ( 0.000000000000000000, 0.000000000000000000, 1.000000000000000000 ) ) ;
#28 = EDGE_CURVE ( 'NONE', #227, #285, #196, .T. ) ;
#29 = ORIENTED_EDGE ( 'NONE', *, *, #210, .F. ) ;
#30 = DIRECTION ( 'NONE',  ( 1.000000000000000000, 0.000000000000000000, 0.000000000000000000 ) ) ;
#31 = APPROVAL ( #207, 'NEURÈENÝ' ) ;
#32 = EDGE_LOOP ( 'NONE', ( #33, #59, #109, #155 ) ) ;
#33 = ORIENTED_EDGE ( 'NONE', *, *, #22, .F. ) ;
#34 = LOCAL_TIME ( 11, 30, 0.000000000000000000, #3 ) ;
#35 = EDGE_LOOP ( 'NONE', ( #77, #220 ) ) ;
#36 = CARTESIAN_POINT ( 'NONE',  ( 20.00000000000000000, 2.449293598294706513E-15, 10.00000000000000000 ) ) ;
#37 = VECTOR ( 'NONE', #181, 1000.000000000000000 ) ;
#38 = CARTESIAN_POINT ( 'NONE',  ( 20.00000000000000000, 2.449293598294706513E-15, 0.000000000000000000 ) ) ;
#39 = CARTESIAN_POINT ( 'NONE',  ( 0.000000000000000000, 0.000000000000000000, 10.00000000000000000 ) ) ;
#40 = DIRECTION ( 'NONE',  ( 0.000000000000000000, 0.000000000000000000, -1.000000000000000000 ) ) ;
#41 = APPROVAL_ROLE ( '' ) ;
#42 = PLANE ( 'NONE',  #167 ) ;
#43 = AXIS2_PLACEMENT_3D ( 'NONE', #123, #217, #239 ) ;
#44 = DIRECTION ( 'NONE',  ( 1.000000000000000000, 0.000000000000000000, 0.000000000000000000 ) ) ;
#45 = DESIGN_CONTEXT ( 'detailed design', #26, 'design' ) ;
#46 = EDGE_CURVE ( 'NONE', #295, #205, #102, .T. ) ;
#47 = AXIS2_PLACEMENT_3D ( 'NONE', #129, #175, #200 ) ;
#48 = CALENDAR_DATE ( 2022, 7, 7 ) ;
#49 = LOCAL_TIME ( 11, 30, 0.000000000000000000, #136 ) ;
#50 = FACE_OUTER_BOUND ( 'NONE', #277, .T. ) ;
#51 = EDGE_CURVE ( 'NONE', #264, #295, #91, .T. ) ;
#52 = DIRECTION ( 'NONE',  ( 0.000000000000000000, 0.000000000000000000, 1.000000000000000000 ) ) ;
#53 = CARTESIAN_POINT ( 'NONE',  ( 0.000000000000000000, 0.000000000000000000, 170.0000000000000000 ) ) ;
#54 = CARTESIAN_POINT ( 'NONE',  ( 0.000000000000000000, 0.000000000000000000, 10.00000000000000000 ) ) ;
#55 = TOROIDAL_SURFACE ( 'NONE', #103, 16.19999999999999929, 0.2000000000000000111 ) ;
#56 = VERTEX_POINT ( 'NONE', #150 ) ;
#57 = CC_DESIGN_APPROVAL ( #31, ( #281 ) ) ;
#58 = EDGE_LOOP ( 'NONE', ( #162, #119 ) ) ;
#59 = ORIENTED_EDGE ( 'NONE', *, *, #93, .T. ) ;
#60 = DIRECTION ( 'NONE',  ( -0.000000000000000000, -0.000000000000000000, -1.000000000000000000 ) ) ;
#61 = APPLICATION_PROTOCOL_DEFINITION ( 'international standard', 'config_control_design', 1994, #26 ) ;
#62 = CIRCLE ( 'NONE', #24, 20.00000000000000000 ) ;
#63 = DIRECTION ( 'NONE',  ( -0.000000000000000000, -0.000000000000000000, -1.000000000000000000 ) ) ;
#64 = COORDINATED_UNIVERSAL_TIME_OFFSET ( 1, 0, .AHEAD. ) ;
#65 = PRODUCT ( 'd18a', 'd18a', '', ( #106 ) ) ;
#66 = CC_DESIGN_DATE_AND_TIME_ASSIGNMENT ( #255, #274, ( #292 ) ) ;
#67 = DIRECTION ( 'NONE',  ( -0.000000000000000000, -0.000000000000000000, -1.000000000000000000 ) ) ;
#68 = CYLINDRICAL_SURFACE ( 'NONE', #72, 20.00000000000000000 ) ;
#69 = AXIS2_PLACEMENT_3D ( 'NONE', #54, #147, #145 ) ;
#70 = ADVANCED_FACE ( 'NONE', ( #224 ), #10, .T. ) ;
#71 = CARTESIAN_POINT ( 'NONE',  ( -16.19999999999999929, 1.983927814618711846E-15, 10.00000000000000711 ) ) ;
#72 = AXIS2_PLACEMENT_3D ( 'NONE', #165, #16, #163 ) ;
#73 = CC_DESIGN_PERSON_AND_ORGANIZATION_ASSIGNMENT ( #238, #186, ( #65 ) ) ;
#74 = CARTESIAN_POINT ( 'NONE',  ( 20.00000000000000000, 2.449293598294706513E-15, 10.00000000000000000 ) ) ;
#75 = LOCAL_TIME ( 11, 30, 0.000000000000000000, #92 ) ;
#76 = CARTESIAN_POINT ( 'NONE',  ( 16.19999999999999929, 0.000000000000000000, 10.00000000000000711 ) ) ;
#77 = ORIENTED_EDGE ( 'NONE', *, *, #107, .T. ) ;
#78 = PERSON_AND_ORGANIZATION ( #154, #169 ) ;
#79 = LINE ( 'NONE', #2, #37 ) ;
#80 = ORIENTED_EDGE ( 'NONE', *, *, #234, .F. ) ;
#81 = AXIS2_PLACEMENT_3D ( 'NONE', #262, #135, #232 ) ;
#82 = CARTESIAN_POINT ( 'NONE',  ( 0.000000000000000000, 0.000000000000000000, 10.00000000000000000 ) ) ;
#83 = CARTESIAN_POINT ( 'NONE',  ( -16.00000000000000000, 0.000000000000000000, 10.20000000000001528 ) ) ;
#84 = EDGE_CURVE ( 'NONE', #205, #5, #223, .T. ) ;
#85 = FACE_OUTER_BOUND ( 'NONE', #32, .T. ) ;
#86 = CC_DESIGN_PERSON_AND_ORGANIZATION_ASSIGNMENT ( #253, #191, ( #292 ) ) ;
#87 = CARTESIAN_POINT ( 'NONE',  ( 0.000000000000000000, 0.000000000000000000, 170.0000000000000000 ) ) ;
#88 = CARTESIAN_POINT ( 'NONE',  ( 0.000000000000000000, 0.000000000000000000, 10.20000000000001528 ) ) ;
#89 = UNCERTAINTY_MEASURE_WITH_UNIT (LENGTH_MEASURE( 1.000000000000000082E-05 ), #148, 'distance_accuracy_value', 'NONE');
#90 = PERSON_AND_ORGANIZATION_ROLE ( 'design_supplier' ) ;
#91 = CIRCLE ( 'NONE', #260, 20.00000000000000000 ) ;
#92 = COORDINATED_UNIVERSAL_TIME_OFFSET ( 1, 0, .AHEAD. ) ;
#93 = EDGE_CURVE ( 'NONE', #203, #285, #79, .T. ) ;
#94 = DIRECTION ( 'NONE',  ( 0.000000000000000000, 0.000000000000000000, 1.000000000000000000 ) ) ;
#95 = ORIENTED_EDGE ( 'NONE', *, *, #46, .T. ) ;
#96 = ORIENTED_EDGE ( 'NONE', *, *, #215, .T. ) ;
#97 = DIRECTION ( 'NONE',  ( 1.224646799147353207E-16, 1.000000000000000000, -0.000000000000000000 ) ) ;
#98 = AXIS2_PLACEMENT_3D ( 'NONE', #11, #94, #30 ) ;
#99 = ORIENTED_EDGE ( 'NONE', *, *, #22, .T. ) ;
#100 = ORIENTED_EDGE ( 'NONE', *, *, #46, .F. ) ;
#101 = EDGE_LOOP ( 'NONE', ( #178, #219 ) ) ;
#102 = LINE ( 'NONE', #36, #222 ) ;
#103 = AXIS2_PLACEMENT_3D ( 'NONE', #111, #256, #208 ) ;
#104 = ORIENTED_EDGE ( 'NONE', *, *, #84, .T. ) ;
#105 = CC_DESIGN_APPROVAL ( #142, ( #306 ) ) ;
#106 = MECHANICAL_CONTEXT ( 'NONE', #25, 'mechanical' ) ;
#107 = EDGE_CURVE ( 'NONE', #13, #265, #233, .T. ) ;
#108 = ORIENTED_EDGE ( 'NONE', *, *, #141, .F. ) ;
#109 = ORIENTED_EDGE ( 'NONE', *, *, #210, .T. ) ;
#110 = ADVANCED_FACE ( 'NONE', ( #230 ), #271, .T. ) ;
#111 = CARTESIAN_POINT ( 'NONE',  ( 0.000000000000000000, 0.000000000000000000, 10.20000000000001528 ) ) ;
#112 = PLANE ( 'NONE',  #174 ) ;
#113 = DIRECTION ( 'NONE',  ( 0.000000000000000000, 0.000000000000000000, 1.000000000000000000 ) ) ;
#114 = APPROVAL_DATE_TIME ( #164, #6 ) ;
#115 = AXIS2_PLACEMENT_3D ( 'NONE', #88, #113, #44 ) ;
#116 = CIRCLE ( 'NONE', #131, 16.00000000000000000 ) ;
#117 = CARTESIAN_POINT ( 'NONE',  ( 0.000000000000000000, 0.000000000000000000, 10.00000000000000000 ) ) ;
#118 = COORDINATED_UNIVERSAL_TIME_OFFSET ( 1, 0, .AHEAD. ) ;
#119 = ORIENTED_EDGE ( 'NONE', *, *, #305, .T. ) ;
#120 = AXIS2_PLACEMENT_3D ( 'NONE', #226, #97, #130 ) ;
#121 = CC_DESIGN_PERSON_AND_ORGANIZATION_ASSIGNMENT ( #193, #90, ( #281 ) ) ;
#122 = CARTESIAN_POINT ( 'NONE',  ( 0.000000000000000000, 0.000000000000000000, 0.000000000000000000 ) ) ;
#123 = CARTESIAN_POINT ( 'NONE',  ( 0.000000000000000000, 0.000000000000000000, 0.000000000000000000 ) ) ;
#124 = APPROVAL_STATUS ( 'not_yet_approved' ) ;
#125 = DIRECTION ( 'NONE',  ( 1.000000000000000000, 0.000000000000000000, 0.000000000000000000 ) ) ;
#126 = ORIENTED_EDGE ( 'NONE', *, *, #28, .T. ) ;
#127 = ORIENTED_EDGE ( 'NONE', *, *, #28, .F. ) ;
#128 = ADVANCED_FACE ( 'NONE', ( #85 ), #14, .T. ) ;
#129 = CARTESIAN_POINT ( 'NONE',  ( 0.000000000000000000, 0.000000000000000000, 10.20000000000001528 ) ) ;
#130 = DIRECTION ( 'NONE',  ( -1.000000000000000000, 1.224646799147353947E-16, 0.000000000000000000 ) ) ;
#131 = AXIS2_PLACEMENT_3D ( 'NONE', #243, #221, #202 ) ;
#132 = DIRECTION ( 'NONE',  ( 1.000000000000000000, 0.000000000000000000, -0.000000000000000000 ) ) ;
#133 =( GEOMETRIC_REPRESENTATION_CONTEXT ( 3 ) GLOBAL_UNCERTAINTY_ASSIGNED_CONTEXT ( ( #89 ) ) GLOBAL_UNIT_ASSIGNED_CONTEXT ( ( #148, #300, #176 ) ) REPRESENTATION_CONTEXT ( 'NONE', 'WORKASPACE' ) );
#134 = DIRECTION ( 'NONE',  ( 0.000000000000000000, 0.000000000000000000, 1.000000000000000000 ) ) ;
#135 = DIRECTION ( 'NONE',  ( -0.000000000000000000, -0.000000000000000000, -1.000000000000000000 ) ) ;
#136 = COORDINATED_UNIVERSAL_TIME_OFFSET ( 1, 0, .AHEAD. ) ;
#137 = EDGE_LOOP ( 'NONE', ( #244, #95, #104, #80 ) ) ;
#138 = CARTESIAN_POINT ( 'NONE',  ( 16.00000000000000000, 1.959434878635765131E-15, 170.0000000000000000 ) ) ;
#139 = CARTESIAN_POINT ( 'NONE',  ( 0.000000000000000000, 0.000000000000000000, 170.0000000000000000 ) ) ;
#140 = DATE_AND_TIME ( #209, #75 ) ;
#141 = EDGE_CURVE ( 'NONE', #265, #13, #258, .T. ) ;
#142 = APPROVAL ( #124, 'NEURÈENÝ' ) ;
#143 = VECTOR ( 'NONE', #60, 1000.000000000000000 ) ;
#144 = DATE_TIME_ROLE ( 'creation_date' ) ;
#145 = DIRECTION ( 'NONE',  ( -1.000000000000000000, 0.000000000000000000, 0.000000000000000000 ) ) ;
#146 = CC_DESIGN_SECURITY_CLASSIFICATION ( #292, ( #281 ) ) ;
#147 = DIRECTION ( 'NONE',  ( -0.000000000000000000, -0.000000000000000000, -1.000000000000000000 ) ) ;
#148 =( LENGTH_UNIT ( ) NAMED_UNIT ( * ) SI_UNIT ( .MILLI., .METRE. ) );
#149 = CIRCLE ( 'NONE', #115, 16.00000000000000000 ) ;
#150 = CARTESIAN_POINT ( 'NONE',  ( -16.00000000000000000, 0.000000000000000000, 170.0000000000000000 ) ) ;
#151 = CARTESIAN_POINT ( 'NONE',  ( -20.00000000000000000, 0.000000000000000000, 0.000000000000000000 ) ) ;
#152 = EDGE_CURVE ( 'NONE', #56, #203, #212, .T. ) ;
#153 = EDGE_LOOP ( 'NONE', ( #261, #99 ) ) ;
#154 = PERSON ( 'NEURÈENÝ', 'NEURÈENÝ', 'NEURÈENÝ', ('NEURÈENÝ'), ('NEURÈENÝ'), ('NEURÈENÝ') ) ;
#155 = ORIENTED_EDGE ( 'NONE', *, *, #246, .F. ) ;
#156 = PRODUCT_DEFINITION_SHAPE ( 'NONE', 'NONE',  #306 ) ;
#157 = DIRECTION ( 'NONE',  ( 0.000000000000000000, 0.000000000000000000, 1.000000000000000000 ) ) ;
#158 = AXIS2_PLACEMENT_3D ( 'NONE', #53, #27, #216 ) ;
#159 = DIRECTION ( 'NONE',  ( -0.000000000000000000, -0.000000000000000000, -1.000000000000000000 ) ) ;
#160 = LOCAL_TIME ( 11, 30, 0.000000000000000000, #118 ) ;
#161 = CARTESIAN_POINT ( 'NONE',  ( -20.00000000000000000, 0.000000000000000000, 10.00000000000000000 ) ) ;
#162 = ORIENTED_EDGE ( 'NONE', *, *, #51, .T. ) ;
#163 = DIRECTION ( 'NONE',  ( -1.000000000000000000, 0.000000000000000000, 0.000000000000000000 ) ) ;
#164 = DATE_AND_TIME ( #189, #49 ) ;
#165 = CARTESIAN_POINT ( 'NONE',  ( 0.000000000000000000, 0.000000000000000000, 10.00000000000000000 ) ) ;
#166 = SECURITY_CLASSIFICATION_LEVEL ( 'unclassified' ) ;
#167 = AXIS2_PLACEMENT_3D ( 'NONE', #117, #157, #132 ) ;
#168 = PERSON_AND_ORGANIZATION ( #154, #169 ) ;
#169 = ORGANIZATION ( 'NEURÈENÝ', 'NEURÈENÝ', '' ) ;
#170 = ADVANCED_FACE ( 'NONE', ( #19 ), #68, .T. ) ;
#171 = ADVANCED_FACE ( 'NONE', ( #254, #228 ), #42, .T. ) ;
#172 = LOCAL_TIME ( 11, 30, 0.000000000000000000, #64 ) ;
#173 = DIRECTION ( 'NONE',  ( 1.000000000000000000, 0.000000000000000000, -0.000000000000000000 ) ) ;
#174 = AXIS2_PLACEMENT_3D ( 'NONE', #122, #134, #173 ) ;
#175 = DIRECTION ( 'NONE',  ( 0.000000000000000000, 0.000000000000000000, 1.000000000000000000 ) ) ;
#176 =( NAMED_UNIT ( * ) SI_UNIT ( $, .STERADIAN. ) SOLID_ANGLE_UNIT ( ) );
#177 = ORIENTED_EDGE ( 'NONE', *, *, #284, .F. ) ;
#178 = ORIENTED_EDGE ( 'NONE', *, *, #215, .F. ) ;
#179 = PERSON_AND_ORGANIZATION ( #154, #169 ) ;
#180 = CC_DESIGN_PERSON_AND_ORGANIZATION_ASSIGNMENT ( #168, #229, ( #281 ) ) ;
#181 = DIRECTION ( 'NONE',  ( -0.000000000000000000, -0.000000000000000000, -1.000000000000000000 ) ) ;
#182 = EDGE_LOOP ( 'NONE', ( #184, #267, #291, #126 ) ) ;
#183 = DIRECTION ( 'NONE',  ( 0.000000000000000000, 0.000000000000000000, 1.000000000000000000 ) ) ;
#184 = ORIENTED_EDGE ( 'NONE', *, *, #93, .F. ) ;
#185 = LINE ( 'NONE', #268, #143 ) ;
#186 = PERSON_AND_ORGANIZATION_ROLE ( 'design_owner' ) ;
#187 = DIRECTION ( 'NONE',  ( 0.000000000000000000, -1.000000000000000000, 0.000000000000000000 ) ) ;
#188 = DIRECTION ( 'NONE',  ( 1.000000000000000000, 0.000000000000000000, 0.000000000000000000 ) ) ;
#189 = CALENDAR_DATE ( 2022, 7, 7 ) ;
#190 = CARTESIAN_POINT ( 'NONE',  ( 0.000000000000000000, 0.000000000000000000, 0.000000000000000000 ) ) ;
#191 = PERSON_AND_ORGANIZATION_ROLE ( 'classification_officer' ) ;
#192 = ADVANCED_FACE ( 'NONE', ( #299 ), #55, .F. ) ;
#193 = PERSON_AND_ORGANIZATION ( #154, #169 ) ;
#194 = CC_DESIGN_DATE_AND_TIME_ASSIGNMENT ( #293, #144, ( #306 ) ) ;
#195 = AXIS2_PLACEMENT_3D ( 'NONE', #190, #206, #301 ) ;
#196 = CIRCLE ( 'NONE', #47, 16.00000000000000000 ) ;
#197 = LINE ( 'NONE', #199, #9 ) ;
#198 = EDGE_CURVE ( 'NONE', #285, #13, #279, .T. ) ;
#199 = CARTESIAN_POINT ( 'NONE',  ( -16.00000000000000000, 0.000000000000000000, 170.0000000000000000 ) ) ;
#200 = DIRECTION ( 'NONE',  ( 1.000000000000000000, 0.000000000000000000, 0.000000000000000000 ) ) ;
#201 = MANIFOLD_SOLID_BREP ( 'Zaoblit1', #241 ) ;
#202 = DIRECTION ( 'NONE',  ( 1.000000000000000000, 0.000000000000000000, 0.000000000000000000 ) ) ;
#203 = VERTEX_POINT ( 'NONE', #138 ) ;
#204 = EDGE_LOOP ( 'NONE', ( #100, #294, #242, #96 ) ) ;
#205 = VERTEX_POINT ( 'NONE', #38 ) ;
#206 = DIRECTION ( 'NONE',  ( 0.000000000000000000, 0.000000000000000000, 1.000000000000000000 ) ) ;
#207 = APPROVAL_STATUS ( 'not_yet_approved' ) ;
#208 = DIRECTION ( 'NONE',  ( 1.000000000000000000, 0.000000000000000000, 0.000000000000000000 ) ) ;
#209 = CALENDAR_DATE ( 2022, 7, 7 ) ;
#210 = EDGE_CURVE ( 'NONE', #285, #227, #149, .T. ) ;
#211 = APPROVAL_ROLE ( '' ) ;
#212 = CIRCLE ( 'NONE', #296, 16.00000000000000000 ) ;
#213 = APPROVAL_PERSON_ORGANIZATION ( #179, #31, #211 ) ;
#214 = CALENDAR_DATE ( 2022, 7, 7 ) ;
#215 = EDGE_CURVE ( 'NONE', #5, #205, #18, .T. ) ;
#216 = DIRECTION ( 'NONE',  ( 1.000000000000000000, 0.000000000000000000, -0.000000000000000000 ) ) ;
#217 = DIRECTION ( 'NONE',  ( 0.000000000000000000, 0.000000000000000000, 1.000000000000000000 ) ) ;
#218 = PERSON_AND_ORGANIZATION_ROLE ( 'creator' ) ;
#219 = ORIENTED_EDGE ( 'NONE', *, *, #84, .F. ) ;
#220 = ORIENTED_EDGE ( 'NONE', *, *, #141, .T. ) ;
#221 = DIRECTION ( 'NONE',  ( 0.000000000000000000, 0.000000000000000000, 1.000000000000000000 ) ) ;
#222 = VECTOR ( 'NONE', #297, 1000.000000000000000 ) ;
#223 = CIRCLE ( 'NONE', #43, 20.00000000000000000 ) ;
#224 = FACE_OUTER_BOUND ( 'NONE', #204, .T. ) ;
#225 = DIRECTION ( 'NONE',  ( -1.000000000000000000, 0.000000000000000000, 0.000000000000000000 ) ) ;
#226 = CARTESIAN_POINT ( 'NONE',  ( -16.19999999999999929, 1.983927814618711846E-15, 10.20000000000001528 ) ) ;
#227 = VERTEX_POINT ( 'NONE', #83 ) ;
#228 = FACE_OUTER_BOUND ( 'NONE', #58, .T. ) ;
#229 = PERSON_AND_ORGANIZATION_ROLE ( 'creator' ) ;
#230 = FACE_OUTER_BOUND ( 'NONE', #182, .T. ) ;
#231 = CALENDAR_DATE ( 2022, 7, 7 ) ;
#232 = DIRECTION ( 'NONE',  ( 1.000000000000000000, 0.000000000000000000, 0.000000000000000000 ) ) ;
#233 = CIRCLE ( 'NONE', #81, 16.19999999999999929 ) ;
#234 = EDGE_CURVE ( 'NONE', #264, #5, #185, .T. ) ;
#235 = FACE_OUTER_BOUND ( 'NONE', #153, .T. ) ;
#236 = CC_DESIGN_PERSON_AND_ORGANIZATION_ASSIGNMENT ( #259, #218, ( #306 ) ) ;
#237 = ORIENTED_EDGE ( 'NONE', *, *, #107, .F. ) ;
#238 = PERSON_AND_ORGANIZATION ( #154, #169 ) ;
#239 = DIRECTION ( 'NONE',  ( 1.000000000000000000, 0.000000000000000000, 0.000000000000000000 ) ) ;
#240 = FACE_OUTER_BOUND ( 'NONE', #101, .T. ) ;
#241 = CLOSED_SHELL ( 'NONE', ( #23, #128, #170, #70, #171, #283, #110, #298, #192 ) ) ;
#242 = ORIENTED_EDGE ( 'NONE', *, *, #234, .T. ) ;
#243 = CARTESIAN_POINT ( 'NONE',  ( 0.000000000000000000, 0.000000000000000000, 170.0000000000000000 ) ) ;
#244 = ORIENTED_EDGE ( 'NONE', *, *, #305, .F. ) ;
#245 = EDGE_LOOP ( 'NONE', ( #177, #29, #290, #108 ) ) ;
#246 = EDGE_CURVE ( 'NONE', #56, #227, #197, .T. ) ;
#247 = CIRCLE ( 'NONE', #120, 0.1999999999999987899 ) ;
#248 = DIRECTION ( 'NONE',  ( 1.000000000000000000, 0.000000000000000000, 0.000000000000000000 ) ) ;
#249 = APPROVAL_ROLE ( '' ) ;
#250 = PRODUCT_RELATED_PRODUCT_CATEGORY ( 'detail', '', ( #65 ) ) ;
#251 = ORIENTED_EDGE ( 'NONE', *, *, #198, .F. ) ;
#252 = CARTESIAN_POINT ( 'NONE',  ( 0.000000000000000000, 0.000000000000000000, 10.00000000000000000 ) ) ;
#253 = PERSON_AND_ORGANIZATION ( #154, #169 ) ;
#254 = FACE_BOUND ( 'NONE', #35, .T. ) ;
#255 = DATE_AND_TIME ( #231, #160 ) ;
#256 = DIRECTION ( 'NONE',  ( 0.000000000000000000, 0.000000000000000000, 1.000000000000000000 ) ) ;
#257 = PERSON_AND_ORGANIZATION ( #154, #169 ) ;
#258 = CIRCLE ( 'NONE', #4, 16.19999999999999929 ) ;
#259 = PERSON_AND_ORGANIZATION ( #154, #169 ) ;
#260 = AXIS2_PLACEMENT_3D ( 'NONE', #82, #183, #266 ) ;
#261 = ORIENTED_EDGE ( 'NONE', *, *, #152, .T. ) ;
#262 = CARTESIAN_POINT ( 'NONE',  ( 0.000000000000000000, 0.000000000000000000, 10.00000000000000000 ) ) ;
#263 = DIRECTION ( 'NONE',  ( -0.000000000000000000, -0.000000000000000000, -1.000000000000000000 ) ) ;
#264 = VERTEX_POINT ( 'NONE', #161 ) ;
#265 = VERTEX_POINT ( 'NONE', #71 ) ;
#266 = DIRECTION ( 'NONE',  ( 1.000000000000000000, 0.000000000000000000, 0.000000000000000000 ) ) ;
#267 = ORIENTED_EDGE ( 'NONE', *, *, #152, .F. ) ;
#268 = CARTESIAN_POINT ( 'NONE',  ( -20.00000000000000000, 0.000000000000000000, 10.00000000000000000 ) ) ;
#269 = DIRECTION ( 'NONE',  ( 0.000000000000000000, 0.000000000000000000, 1.000000000000000000 ) ) ;
#270 = AXIS2_PLACEMENT_3D ( 'NONE', #273, #63, #225 ) ;
#271 = CYLINDRICAL_SURFACE ( 'NONE', #270, 16.00000000000000000 ) ;
#272 = APPLICATION_PROTOCOL_DEFINITION ( 'international standard', 'config_control_design', 1994, #25 ) ;
#273 = CARTESIAN_POINT ( 'NONE',  ( 0.000000000000000000, 0.000000000000000000, 170.0000000000000000 ) ) ;
#274 = DATE_TIME_ROLE ( 'classification_date' ) ;
#275 = DIRECTION ( 'NONE',  ( -1.000000000000000000, 0.000000000000000000, 0.000000000000000000 ) ) ;
#276 = APPROVAL_DATE_TIME ( #140, #31 ) ;
#277 = EDGE_LOOP ( 'NONE', ( #127, #7, #237, #251 ) ) ;
#278 = APPROVAL_STATUS ( 'not_yet_approved' ) ;
#279 = CIRCLE ( 'NONE', #304, 0.2000000000000005107 ) ;
#280 = ADVANCED_BREP_SHAPE_REPRESENTATION ( 'd18a', ( #201, #98 ), #133 ) ;
#281 = PRODUCT_DEFINITION_FORMATION_WITH_SPECIFIED_SOURCE ( 'LIBOVOLNÝ', '', #65, .NOT_KNOWN. ) ;
#282 = CC_DESIGN_APPROVAL ( #6, ( #292 ) ) ;
#283 = ADVANCED_FACE ( 'NONE', ( #240 ), #112, .F. ) ;
#284 = EDGE_CURVE ( 'NONE', #227, #265, #247, .T. ) ;
#285 = VERTEX_POINT ( 'NONE', #289 ) ;
#286 = AXIS2_PLACEMENT_3D ( 'NONE', #87, #159, #275 ) ;
#287 = AXIS2_PLACEMENT_3D ( 'NONE', #8, #52, #125 ) ;
#288 = APPROVAL_DATE_TIME ( #307, #142 ) ;
#289 = CARTESIAN_POINT ( 'NONE',  ( 16.00000000000000000, 1.959434878635765131E-15, 10.20000000000001528 ) ) ;
#290 = ORIENTED_EDGE ( 'NONE', *, *, #198, .T. ) ;
#291 = ORIENTED_EDGE ( 'NONE', *, *, #246, .T. ) ;
#292 = SECURITY_CLASSIFICATION ( '', '', #166 ) ;
#293 = DATE_AND_TIME ( #48, #34 ) ;
#294 = ORIENTED_EDGE ( 'NONE', *, *, #51, .F. ) ;
#295 = VERTEX_POINT ( 'NONE', #74 ) ;
#296 = AXIS2_PLACEMENT_3D ( 'NONE', #139, #21, #248 ) ;
#297 = DIRECTION ( 'NONE',  ( -0.000000000000000000, -0.000000000000000000, -1.000000000000000000 ) ) ;
#298 = ADVANCED_FACE ( 'NONE', ( #235 ), #1, .T. ) ;
#299 = FACE_OUTER_BOUND ( 'NONE', #245, .T. ) ;
#300 =( NAMED_UNIT ( * ) PLANE_ANGLE_UNIT ( ) SI_UNIT ( $, .RADIAN. ) );
#301 = DIRECTION ( 'NONE',  ( 1.000000000000000000, 0.000000000000000000, 0.000000000000000000 ) ) ;
#302 = CARTESIAN_POINT ( 'NONE',  ( 16.19999999999999929, 0.000000000000000000, 10.20000000000001528 ) ) ;
#303 = TOROIDAL_SURFACE ( 'NONE', #287, 16.19999999999999929, 0.2000000000000000111 ) ;
#304 = AXIS2_PLACEMENT_3D ( 'NONE', #302, #187, #40 ) ;
#305 = EDGE_CURVE ( 'NONE', #295, #264, #62, .T. ) ;
#306 = PRODUCT_DEFINITION ( 'NEZNÁMÝ', '', #281, #45 ) ;
#307 = DATE_AND_TIME ( #214, #172 ) ;
ENDSEC;
END-ISO-10303-21;
