ISO-10303-21;
HEADER;
FILE_DESCRIPTION (( 'STEP AP203' ),
    '1' );
FILE_NAME ('cbf0.STEP',
    '2023-02-12T11:59:13',
    ( '' ),
    ( '' ),
    'SwSTEP 2.0',
    'SolidWorks 2019',
    '' );
FILE_SCHEMA (( 'CONFIG_CONTROL_DESIGN' ));
ENDSEC;

DATA;
#1 = ADVANCED_FACE ( 'NONE', ( #182 ), #88, .T. ) ;
#2 = COORDINATED_UNIVERSAL_TIME_OFFSET ( 1, 0, .AHEAD. ) ;
#3 = AXIS2_PLACEMENT_3D ( 'NONE', #69, #227, #49 ) ;
#4 = DIRECTION ( 'NONE',  ( -0.000000000000000000, -0.000000000000000000, -1.000000000000000000 ) ) ;
#5 = LOCAL_TIME ( 12, 59, 13.00000000000000000, #2 ) ;
#6 =( LENGTH_UNIT ( ) NAMED_UNIT ( * ) SI_UNIT ( .MILLI., .METRE. ) );
#7 = ORIENTED_EDGE ( 'NONE', *, *, #160, .F. ) ;
#8 = CARTESIAN_POINT ( 'NONE',  ( 3.500000000000000000, 4.286263797015736595E-16, 315.0000000000000000 ) ) ;
#9 = CIRCLE ( 'NONE', #201, 3.500000000000000000 ) ;
#10 = ADVANCED_FACE ( 'NONE', ( #159 ), #238, .T. ) ;
#11 = DIRECTION ( 'NONE',  ( 1.000000000000000000, 0.000000000000000000, -0.000000000000000000 ) ) ;
#12 = PERSON_AND_ORGANIZATION_ROLE ( 'design_supplier' ) ;
#13 = PRODUCT_DEFINITION_SHAPE ( 'NONE', 'NONE',  #113 ) ;
#14 = EDGE_CURVE ( 'NONE', #63, #17, #67, .T. ) ;
#15 = AXIS2_PLACEMENT_3D ( 'NONE', #130, #31, #75 ) ;
#16 = FACE_OUTER_BOUND ( 'NONE', #119, .T. ) ;
#17 = VERTEX_POINT ( 'NONE', #180 ) ;
#18 = APPROVAL_PERSON_ORGANIZATION ( #22, #143, #228 ) ;
#19 = CARTESIAN_POINT ( 'NONE',  ( 0.000000000000000000, 0.000000000000000000, 315.0000000000000000 ) ) ;
#20 = VERTEX_POINT ( 'NONE', #240 ) ;
#21 = CLOSED_SHELL ( 'NONE', ( #46, #183, #1, #89, #131, #10, #221 ) ) ;
#22 = PERSON_AND_ORGANIZATION ( #28, #44 ) ;
#23 = EDGE_LOOP ( 'NONE', ( #233, #173, #25, #175 ) ) ;
#24 = CC_DESIGN_PERSON_AND_ORGANIZATION_ASSIGNMENT ( #53, #208, ( #73 ) ) ;
#25 = ORIENTED_EDGE ( 'NONE', *, *, #14, .T. ) ;
#26 = CC_DESIGN_PERSON_AND_ORGANIZATION_ASSIGNMENT ( #33, #12, ( #73 ) ) ;
#27 = VERTEX_POINT ( 'NONE', #64 ) ;
#28 = PERSON ( 'NEURÈENÝ', 'NEURÈENÝ', 'NEURÈENÝ', ('NEURÈENÝ'), ('NEURÈENÝ'), ('NEURÈENÝ') ) ;
#29 = AXIS2_PLACEMENT_3D ( 'NONE', #19, #35, #34 ) ;
#30 = FACE_BOUND ( 'NONE', #242, .T. ) ;
#31 = DIRECTION ( 'NONE',  ( 0.000000000000000000, 0.000000000000000000, 1.000000000000000000 ) ) ;
#32 = CARTESIAN_POINT ( 'NONE',  ( 6.000000000000000888, 7.347880794884120722E-16, 5.000000000000000000 ) ) ;
#33 = PERSON_AND_ORGANIZATION ( #28, #44 ) ;
#34 = DIRECTION ( 'NONE',  ( 1.000000000000000000, 0.000000000000000000, 0.000000000000000000 ) ) ;
#35 = DIRECTION ( 'NONE',  ( 0.000000000000000000, 0.000000000000000000, 1.000000000000000000 ) ) ;
#36 = ORIENTED_EDGE ( 'NONE', *, *, #14, .F. ) ;
#37 = AXIS2_PLACEMENT_3D ( 'NONE', #90, #168, #246 ) ;
#38 = CIRCLE ( 'NONE', #79, 6.000000000000000888 ) ;
#39 = CC_DESIGN_APPROVAL ( #143, ( #56 ) ) ;
#40 = APPLICATION_CONTEXT ( 'configuration controlled 3d designs of mechanical parts and assemblies' ) ;
#41 = CC_DESIGN_DATE_AND_TIME_ASSIGNMENT ( #217, #78, ( #113 ) ) ;
#42 = ORIENTED_EDGE ( 'NONE', *, *, #93, .T. ) ;
#43 = APPLICATION_PROTOCOL_DEFINITION ( 'international standard', 'config_control_design', 1994, #40 ) ;
#44 = ORGANIZATION ( 'NEURÈENÝ', 'NEURÈENÝ', '' ) ;
#45 = ORIENTED_EDGE ( 'NONE', *, *, #156, .T. ) ;
#46 = ADVANCED_FACE ( 'NONE', ( #161 ), #142, .T. ) ;
#47 = COORDINATED_UNIVERSAL_TIME_OFFSET ( 1, 0, .AHEAD. ) ;
#48 = LINE ( 'NONE', #126, #255 ) ;
#49 = DIRECTION ( 'NONE',  ( 1.000000000000000000, 0.000000000000000000, 0.000000000000000000 ) ) ;
#50 = AXIS2_PLACEMENT_3D ( 'NONE', #153, #174, #190 ) ;
#51 = CARTESIAN_POINT ( 'NONE',  ( 3.500000000000000000, 4.286263797015736595E-16, 5.000000000000000000 ) ) ;
#52 = CARTESIAN_POINT ( 'NONE',  ( -6.000000000000000888, 0.000000000000000000, 5.000000000000000000 ) ) ;
#53 = PERSON_AND_ORGANIZATION ( #28, #44 ) ;
#54 = FACE_OUTER_BOUND ( 'NONE', #214, .T. ) ;
#55 = APPROVAL_DATE_TIME ( #111, #244 ) ;
#56 = SECURITY_CLASSIFICATION ( '', '', #76 ) ;
#57 = PERSON_AND_ORGANIZATION ( #28, #44 ) ;
#58 = EDGE_CURVE ( 'NONE', #82, #63, #203, .T. ) ;
#59 = ORIENTED_EDGE ( 'NONE', *, *, #104, .F. ) ;
#60 = CARTESIAN_POINT ( 'NONE',  ( 0.000000000000000000, 0.000000000000000000, 0.000000000000000000 ) ) ;
#61 = CARTESIAN_POINT ( 'NONE',  ( 0.000000000000000000, 0.000000000000000000, 0.000000000000000000 ) ) ;
#62 = PERSON_AND_ORGANIZATION_ROLE ( 'classification_officer' ) ;
#63 = VERTEX_POINT ( 'NONE', #52 ) ;
#64 = CARTESIAN_POINT ( 'NONE',  ( 6.000000000000000888, 7.347880794884120722E-16, 0.000000000000000000 ) ) ;
#65 = DIRECTION ( 'NONE',  ( 1.000000000000000000, 0.000000000000000000, -0.000000000000000000 ) ) ;
#66 = ORIENTED_EDGE ( 'NONE', *, *, #117, .F. ) ;
#67 = LINE ( 'NONE', #146, #235 ) ;
#68 = AXIS2_PLACEMENT_3D ( 'NONE', #81, #95, #65 ) ;
#69 = CARTESIAN_POINT ( 'NONE',  ( 0.000000000000000000, 0.000000000000000000, 315.0000000000000000 ) ) ;
#70 = CC_DESIGN_PERSON_AND_ORGANIZATION_ASSIGNMENT ( #99, #179, ( #98 ) ) ;
#71 = CIRCLE ( 'NONE', #187, 6.000000000000000888 ) ;
#72 = APPROVAL_DATE_TIME ( #112, #143 ) ;
#73 = PRODUCT_DEFINITION_FORMATION_WITH_SPECIFIED_SOURCE ( 'LIBOVOLNÝ', '', #98, .NOT_KNOWN. ) ;
#74 = DIRECTION ( 'NONE',  ( -1.000000000000000000, 0.000000000000000000, 0.000000000000000000 ) ) ;
#75 = DIRECTION ( 'NONE',  ( 1.000000000000000000, 0.000000000000000000, 0.000000000000000000 ) ) ;
#76 = SECURITY_CLASSIFICATION_LEVEL ( 'unclassified' ) ;
#77 = AXIS2_PLACEMENT_3D ( 'NONE', #243, #4, #86 ) ;
#78 = DATE_TIME_ROLE ( 'creation_date' ) ;
#79 = AXIS2_PLACEMENT_3D ( 'NONE', #163, #106, #185 ) ;
#80 = EDGE_LOOP ( 'NONE', ( #7, #162 ) ) ;
#81 = CARTESIAN_POINT ( 'NONE',  ( 0.000000000000000000, 0.000000000000000000, 315.0000000000000000 ) ) ;
#82 = VERTEX_POINT ( 'NONE', #250 ) ;
#83 = ORIENTED_EDGE ( 'NONE', *, *, #176, .F. ) ;
#84 = EDGE_LOOP ( 'NONE', ( #83, #42, #157, #59 ) ) ;
#85 = DIRECTION ( 'NONE',  ( -0.000000000000000000, -0.000000000000000000, -1.000000000000000000 ) ) ;
#86 = DIRECTION ( 'NONE',  ( -1.000000000000000000, 0.000000000000000000, 0.000000000000000000 ) ) ;
#87 = EDGE_LOOP ( 'NONE', ( #123, #45, #144, #36 ) ) ;
#88 = CYLINDRICAL_SURFACE ( 'NONE', #251, 6.000000000000000888 ) ;
#89 = ADVANCED_FACE ( 'NONE', ( #30, #54 ), #91, .T. ) ;
#90 = CARTESIAN_POINT ( 'NONE',  ( 0.000000000000000000, 0.000000000000000000, 5.000000000000000000 ) ) ;
#91 = PLANE ( 'NONE',  #225 ) ;
#92 =( GEOMETRIC_REPRESENTATION_CONTEXT ( 3 ) GLOBAL_UNCERTAINTY_ASSIGNED_CONTEXT ( ( #226 ) ) GLOBAL_UNIT_ASSIGNED_CONTEXT ( ( #6, #137, #107 ) ) REPRESENTATION_CONTEXT ( 'NONE', 'WORKASPACE' ) );
#93 = EDGE_CURVE ( 'NONE', #20, #155, #223, .T. ) ;
#94 = DIRECTION ( 'NONE',  ( 0.000000000000000000, 0.000000000000000000, 1.000000000000000000 ) ) ;
#95 = DIRECTION ( 'NONE',  ( 0.000000000000000000, 0.000000000000000000, 1.000000000000000000 ) ) ;
#96 = PRODUCT_RELATED_PRODUCT_CATEGORY ( 'detail', '', ( #98 ) ) ;
#97 = CIRCLE ( 'NONE', #37, 3.500000000000000000 ) ;
#98 = PRODUCT ( 'cbf0', 'cbf0', '', ( #237 ) ) ;
#99 = PERSON_AND_ORGANIZATION ( #28, #44 ) ;
#100 = COORDINATED_UNIVERSAL_TIME_OFFSET ( 1, 0, .AHEAD. ) ;
#101 = CIRCLE ( 'NONE', #29, 3.500000000000000000 ) ;
#102 = AXIS2_PLACEMENT_3D ( 'NONE', #151, #94, #115 ) ;
#103 = VERTEX_POINT ( 'NONE', #166 ) ;
#104 = EDGE_CURVE ( 'NONE', #103, #220, #48, .T. ) ;
#105 = CARTESIAN_POINT ( 'NONE',  ( 0.000000000000000000, 0.000000000000000000, 5.000000000000000000 ) ) ;
#106 = DIRECTION ( 'NONE',  ( 0.000000000000000000, 0.000000000000000000, 1.000000000000000000 ) ) ;
#107 =( NAMED_UNIT ( * ) SI_UNIT ( $, .STERADIAN. ) SOLID_ANGLE_UNIT ( ) );
#108 = CARTESIAN_POINT ( 'NONE',  ( 0.000000000000000000, 0.000000000000000000, 5.000000000000000000 ) ) ;
#109 = FACE_OUTER_BOUND ( 'NONE', #80, .T. ) ;
#110 = DIRECTION ( 'NONE',  ( -0.000000000000000000, -0.000000000000000000, -1.000000000000000000 ) ) ;
#111 = DATE_AND_TIME ( #192, #136 ) ;
#112 = DATE_AND_TIME ( #247, #249 ) ;
#113 = PRODUCT_DEFINITION ( 'NEZNÁMÝ', '', #73, #209 ) ;
#114 = CARTESIAN_POINT ( 'NONE',  ( -3.500000000000000000, 0.000000000000000000, 5.000000000000000000 ) ) ;
#115 = DIRECTION ( 'NONE',  ( 1.000000000000000000, 0.000000000000000000, 0.000000000000000000 ) ) ;
#116 = CIRCLE ( 'NONE', #3, 3.500000000000000000 ) ;
#117 = EDGE_CURVE ( 'NONE', #103, #20, #116, .T. ) ;
#118 = DATE_AND_TIME ( #138, #186 ) ;
#119 = EDGE_LOOP ( 'NONE', ( #216, #139 ) ) ;
#120 = APPLICATION_PROTOCOL_DEFINITION ( 'international standard', 'config_control_design', 1994, #145 ) ;
#121 = ORIENTED_EDGE ( 'NONE', *, *, #219, .T. ) ;
#122 = CC_DESIGN_PERSON_AND_ORGANIZATION_ASSIGNMENT ( #147, #204, ( #113 ) ) ;
#123 = ORIENTED_EDGE ( 'NONE', *, *, #58, .F. ) ;
#124 = ORIENTED_EDGE ( 'NONE', *, *, #219, .F. ) ;
#125 = ORIENTED_EDGE ( 'NONE', *, *, #93, .F. ) ;
#126 = CARTESIAN_POINT ( 'NONE',  ( -3.500000000000000000, 0.000000000000000000, 315.0000000000000000 ) ) ;
#127 = PLANE ( 'NONE',  #177 ) ;
#128 = CC_DESIGN_APPROVAL ( #167, ( #113 ) ) ;
#129 = LINE ( 'NONE', #32, #184 ) ;
#130 = CARTESIAN_POINT ( 'NONE',  ( 0.000000000000000000, 0.000000000000000000, 5.000000000000000000 ) ) ;
#131 = ADVANCED_FACE ( 'NONE', ( #109 ), #127, .F. ) ;
#132 = APPROVAL_STATUS ( 'not_yet_approved' ) ;
#133 = DIRECTION ( 'NONE',  ( 0.000000000000000000, 0.000000000000000000, 1.000000000000000000 ) ) ;
#134 = COORDINATED_UNIVERSAL_TIME_OFFSET ( 1, 0, .AHEAD. ) ;
#135 = EDGE_CURVE ( 'NONE', #155, #220, #97, .T. ) ;
#136 = LOCAL_TIME ( 12, 59, 13.00000000000000000, #152 ) ;
#137 =( NAMED_UNIT ( * ) PLANE_ANGLE_UNIT ( ) SI_UNIT ( $, .RADIAN. ) );
#138 = CALENDAR_DATE ( 2023, 12, 2 ) ;
#139 = ORIENTED_EDGE ( 'NONE', *, *, #176, .T. ) ;
#140 = DIRECTION ( 'NONE',  ( 0.000000000000000000, 0.000000000000000000, 1.000000000000000000 ) ) ;
#141 = CIRCLE ( 'NONE', #102, 6.000000000000000888 ) ;
#142 = CYLINDRICAL_SURFACE ( 'NONE', #165, 3.500000000000000000 ) ;
#143 = APPROVAL ( #132, 'NEURÈENÝ' ) ;
#144 = ORIENTED_EDGE ( 'NONE', *, *, #224, .T. ) ;
#145 = APPLICATION_CONTEXT ( 'configuration controlled 3d designs of mechanical parts and assemblies' ) ;
#146 = CARTESIAN_POINT ( 'NONE',  ( -6.000000000000000888, 0.000000000000000000, 5.000000000000000000 ) ) ;
#147 = PERSON_AND_ORGANIZATION ( #28, #44 ) ;
#148 = DIRECTION ( 'NONE',  ( 0.000000000000000000, 0.000000000000000000, 1.000000000000000000 ) ) ;
#149 = SHAPE_DEFINITION_REPRESENTATION ( #13, #191 ) ;
#150 = CARTESIAN_POINT ( 'NONE',  ( 0.000000000000000000, 0.000000000000000000, 315.0000000000000000 ) ) ;
#151 = CARTESIAN_POINT ( 'NONE',  ( 0.000000000000000000, 0.000000000000000000, 5.000000000000000000 ) ) ;
#152 = COORDINATED_UNIVERSAL_TIME_OFFSET ( 1, 0, .AHEAD. ) ;
#153 = CARTESIAN_POINT ( 'NONE',  ( 0.000000000000000000, 0.000000000000000000, 5.000000000000000000 ) ) ;
#154 = EDGE_LOOP ( 'NONE', ( #125, #66, #199, #121 ) ) ;
#155 = VERTEX_POINT ( 'NONE', #51 ) ;
#156 = EDGE_CURVE ( 'NONE', #82, #27, #129, .T. ) ;
#157 = ORIENTED_EDGE ( 'NONE', *, *, #135, .T. ) ;
#158 = CALENDAR_DATE ( 2023, 12, 2 ) ;
#159 = FACE_OUTER_BOUND ( 'NONE', #154, .T. ) ;
#160 = EDGE_CURVE ( 'NONE', #17, #27, #71, .T. ) ;
#161 = FACE_OUTER_BOUND ( 'NONE', #84, .T. ) ;
#162 = ORIENTED_EDGE ( 'NONE', *, *, #224, .F. ) ;
#163 = CARTESIAN_POINT ( 'NONE',  ( 0.000000000000000000, 0.000000000000000000, 0.000000000000000000 ) ) ;
#164 = DIRECTION ( 'NONE',  ( -1.000000000000000000, 0.000000000000000000, 0.000000000000000000 ) ) ;
#165 = AXIS2_PLACEMENT_3D ( 'NONE', #150, #207, #74 ) ;
#166 = CARTESIAN_POINT ( 'NONE',  ( -3.500000000000000000, 0.000000000000000000, 315.0000000000000000 ) ) ;
#167 = APPROVAL ( #181, 'NEURÈENÝ' ) ;
#168 = DIRECTION ( 'NONE',  ( 0.000000000000000000, 0.000000000000000000, 1.000000000000000000 ) ) ;
#169 = DIRECTION ( 'NONE',  ( 0.000000000000000000, 0.000000000000000000, 1.000000000000000000 ) ) ;
#170 = ORIENTED_EDGE ( 'NONE', *, *, #135, .F. ) ;
#171 = APPROVAL_STATUS ( 'not_yet_approved' ) ;
#172 = AXIS2_PLACEMENT_3D ( 'NONE', #61, #140, #215 ) ;
#173 = ORIENTED_EDGE ( 'NONE', *, *, #211, .F. ) ;
#174 = DIRECTION ( 'NONE',  ( -0.000000000000000000, -0.000000000000000000, -1.000000000000000000 ) ) ;
#175 = ORIENTED_EDGE ( 'NONE', *, *, #160, .T. ) ;
#176 = EDGE_CURVE ( 'NONE', #20, #103, #101, .T. ) ;
#177 = AXIS2_PLACEMENT_3D ( 'NONE', #205, #148, #189 ) ;
#178 = CALENDAR_DATE ( 2023, 12, 2 ) ;
#179 = PERSON_AND_ORGANIZATION_ROLE ( 'design_owner' ) ;
#180 = CARTESIAN_POINT ( 'NONE',  ( -6.000000000000000888, 0.000000000000000000, 0.000000000000000000 ) ) ;
#181 = APPROVAL_STATUS ( 'not_yet_approved' ) ;
#182 = FACE_OUTER_BOUND ( 'NONE', #23, .T. ) ;
#183 = ADVANCED_FACE ( 'NONE', ( #213 ), #195, .T. ) ;
#184 = VECTOR ( 'NONE', #110, 1000.000000000000000 ) ;
#185 = DIRECTION ( 'NONE',  ( 1.000000000000000000, 0.000000000000000000, 0.000000000000000000 ) ) ;
#186 = LOCAL_TIME ( 12, 59, 13.00000000000000000, #134 ) ;
#187 = AXIS2_PLACEMENT_3D ( 'NONE', #60, #194, #254 ) ;
#188 = APPROVAL_PERSON_ORGANIZATION ( #198, #167, #200 ) ;
#189 = DIRECTION ( 'NONE',  ( 1.000000000000000000, 0.000000000000000000, -0.000000000000000000 ) ) ;
#190 = DIRECTION ( 'NONE',  ( -1.000000000000000000, 0.000000000000000000, 0.000000000000000000 ) ) ;
#191 = ADVANCED_BREP_SHAPE_REPRESENTATION ( 'cbf0', ( #241, #172 ), #92 ) ;
#192 = CALENDAR_DATE ( 2023, 12, 2 ) ;
#193 = PLANE ( 'NONE',  #68 ) ;
#194 = DIRECTION ( 'NONE',  ( 0.000000000000000000, 0.000000000000000000, 1.000000000000000000 ) ) ;
#195 = CYLINDRICAL_SURFACE ( 'NONE', #50, 6.000000000000000888 ) ;
#196 = DATE_TIME_ROLE ( 'classification_date' ) ;
#197 = VECTOR ( 'NONE', #248, 1000.000000000000000 ) ;
#198 = PERSON_AND_ORGANIZATION ( #28, #44 ) ;
#199 = ORIENTED_EDGE ( 'NONE', *, *, #104, .T. ) ;
#200 = APPROVAL_ROLE ( '' ) ;
#201 = AXIS2_PLACEMENT_3D ( 'NONE', #231, #133, #210 ) ;
#202 = ORIENTED_EDGE ( 'NONE', *, *, #211, .T. ) ;
#203 = CIRCLE ( 'NONE', #15, 6.000000000000000888 ) ;
#204 = PERSON_AND_ORGANIZATION_ROLE ( 'creator' ) ;
#205 = CARTESIAN_POINT ( 'NONE',  ( 0.000000000000000000, 0.000000000000000000, 0.000000000000000000 ) ) ;
#206 = LOCAL_TIME ( 12, 59, 13.00000000000000000, #47 ) ;
#207 = DIRECTION ( 'NONE',  ( -0.000000000000000000, -0.000000000000000000, -1.000000000000000000 ) ) ;
#208 = PERSON_AND_ORGANIZATION_ROLE ( 'creator' ) ;
#209 = DESIGN_CONTEXT ( 'detailed design', #145, 'design' ) ;
#210 = DIRECTION ( 'NONE',  ( 1.000000000000000000, 0.000000000000000000, 0.000000000000000000 ) ) ;
#211 = EDGE_CURVE ( 'NONE', #63, #82, #141, .T. ) ;
#212 = PERSON_AND_ORGANIZATION ( #28, #44 ) ;
#213 = FACE_OUTER_BOUND ( 'NONE', #87, .T. ) ;
#214 = EDGE_LOOP ( 'NONE', ( #202, #236 ) ) ;
#215 = DIRECTION ( 'NONE',  ( 1.000000000000000000, 0.000000000000000000, 0.000000000000000000 ) ) ;
#216 = ORIENTED_EDGE ( 'NONE', *, *, #117, .T. ) ;
#217 = DATE_AND_TIME ( #178, #206 ) ;
#218 = CC_DESIGN_APPROVAL ( #244, ( #73 ) ) ;
#219 = EDGE_CURVE ( 'NONE', #220, #155, #9, .T. ) ;
#220 = VERTEX_POINT ( 'NONE', #114 ) ;
#221 = ADVANCED_FACE ( 'NONE', ( #16 ), #193, .T. ) ;
#222 = DIRECTION ( 'NONE',  ( -0.000000000000000000, -0.000000000000000000, -1.000000000000000000 ) ) ;
#223 = LINE ( 'NONE', #8, #197 ) ;
#224 = EDGE_CURVE ( 'NONE', #27, #17, #38, .T. ) ;
#225 = AXIS2_PLACEMENT_3D ( 'NONE', #108, #169, #11 ) ;
#226 = UNCERTAINTY_MEASURE_WITH_UNIT (LENGTH_MEASURE( 1.000000000000000082E-05 ), #6, 'distance_accuracy_value', 'NONE');
#227 = DIRECTION ( 'NONE',  ( 0.000000000000000000, 0.000000000000000000, 1.000000000000000000 ) ) ;
#228 = APPROVAL_ROLE ( '' ) ;
#229 = APPROVAL_DATE_TIME ( #239, #167 ) ;
#230 = CC_DESIGN_DATE_AND_TIME_ASSIGNMENT ( #118, #196, ( #56 ) ) ;
#231 = CARTESIAN_POINT ( 'NONE',  ( 0.000000000000000000, 0.000000000000000000, 5.000000000000000000 ) ) ;
#232 = CC_DESIGN_SECURITY_CLASSIFICATION ( #56, ( #73 ) ) ;
#233 = ORIENTED_EDGE ( 'NONE', *, *, #156, .F. ) ;
#234 = CC_DESIGN_PERSON_AND_ORGANIZATION_ASSIGNMENT ( #57, #62, ( #56 ) ) ;
#235 = VECTOR ( 'NONE', #222, 1000.000000000000000 ) ;
#236 = ORIENTED_EDGE ( 'NONE', *, *, #58, .T. ) ;
#237 = MECHANICAL_CONTEXT ( 'NONE', #40, 'mechanical' ) ;
#238 = CYLINDRICAL_SURFACE ( 'NONE', #77, 3.500000000000000000 ) ;
#239 = DATE_AND_TIME ( #158, #5 ) ;
#240 = CARTESIAN_POINT ( 'NONE',  ( 3.500000000000000000, 4.286263797015736595E-16, 315.0000000000000000 ) ) ;
#241 = MANIFOLD_SOLID_BREP ( 'Pøidat vysunutím3', #21 ) ;
#242 = EDGE_LOOP ( 'NONE', ( #124, #170 ) ) ;
#243 = CARTESIAN_POINT ( 'NONE',  ( 0.000000000000000000, 0.000000000000000000, 315.0000000000000000 ) ) ;
#244 = APPROVAL ( #171, 'NEURÈENÝ' ) ;
#245 = DIRECTION ( 'NONE',  ( -0.000000000000000000, -0.000000000000000000, -1.000000000000000000 ) ) ;
#246 = DIRECTION ( 'NONE',  ( 1.000000000000000000, 0.000000000000000000, 0.000000000000000000 ) ) ;
#247 = CALENDAR_DATE ( 2023, 12, 2 ) ;
#248 = DIRECTION ( 'NONE',  ( -0.000000000000000000, -0.000000000000000000, -1.000000000000000000 ) ) ;
#249 = LOCAL_TIME ( 12, 59, 13.00000000000000000, #100 ) ;
#250 = CARTESIAN_POINT ( 'NONE',  ( 6.000000000000000888, 7.347880794884120722E-16, 5.000000000000000000 ) ) ;
#251 = AXIS2_PLACEMENT_3D ( 'NONE', #105, #85, #164 ) ;
#252 = APPROVAL_PERSON_ORGANIZATION ( #212, #244, #253 ) ;
#253 = APPROVAL_ROLE ( '' ) ;
#254 = DIRECTION ( 'NONE',  ( 1.000000000000000000, 0.000000000000000000, 0.000000000000000000 ) ) ;
#255 = VECTOR ( 'NONE', #245, 1000.000000000000000 ) ;
ENDSEC;
END-ISO-10303-21;
