ISO-10303-21;
HEADER;
FILE_DESCRIPTION (( 'STEP AP203' ),
    '1' );
FILE_NAME ('03a3.STEP',
    '2022-07-07T09:46:38',
    ( '' ),
    ( '' ),
    'SwSTEP 2.0',
    'SolidWorks 2019',
    '' );
FILE_SCHEMA (( 'CONFIG_CONTROL_DESIGN' ));
ENDSEC;

DATA;
#1 = DATE_AND_TIME ( #22, #292 ) ;
#2 = ORIENTED_EDGE ( 'NONE', *, *, #34, .T. ) ;
#3 = EDGE_CURVE ( 'NONE', #88, #52, #202, .T. ) ;
#4 = FACE_OUTER_BOUND ( 'NONE', #217, .T. ) ;
#5 = CARTESIAN_POINT ( 'NONE',  ( 0.000000000000000000, 0.000000000000000000, 322.0000000000000000 ) ) ;
#6 = CARTESIAN_POINT ( 'NONE',  ( 6.200000000000001066, 0.000000000000000000, 7.199999999999984190 ) ) ;
#7 = ORIENTED_EDGE ( 'NONE', *, *, #56, .F. ) ;
#8 = VECTOR ( 'NONE', #294, 1000.000000000000000 ) ;
#9 = VERTEX_POINT ( 'NONE', #102 ) ;
#10 = CARTESIAN_POINT ( 'NONE',  ( 0.000000000000000000, 0.000000000000000000, 7.000000000000000000 ) ) ;
#11 = CC_DESIGN_PERSON_AND_ORGANIZATION_ASSIGNMENT ( #92, #145, ( #298 ) ) ;
#12 = DIRECTION ( 'NONE',  ( -0.000000000000000000, -0.000000000000000000, -1.000000000000000000 ) ) ;
#13 = CC_DESIGN_APPROVAL ( #31, ( #146 ) ) ;
#14 = CARTESIAN_POINT ( 'NONE',  ( -6.200000000000001066, 7.592810154713590821E-16, 6.999999999999992006 ) ) ;
#15 = ORIENTED_EDGE ( 'NONE', *, *, #109, .F. ) ;
#16 = DIRECTION ( 'NONE',  ( -0.000000000000000000, -0.000000000000000000, -1.000000000000000000 ) ) ;
#17 = VERTEX_POINT ( 'NONE', #152 ) ;
#18 = DIRECTION ( 'NONE',  ( 1.000000000000000000, 0.000000000000000000, -0.000000000000000000 ) ) ;
#19 = AXIS2_PLACEMENT_3D ( 'NONE', #46, #28, #144 ) ;
#20 = PERSON_AND_ORGANIZATION ( #174, #38 ) ;
#21 = ADVANCED_FACE ( 'NONE', ( #4 ), #171, .T. ) ;
#22 = CALENDAR_DATE ( 2022, 7, 7 ) ;
#23 = PERSON_AND_ORGANIZATION ( #174, #38 ) ;
#24 = VERTEX_POINT ( 'NONE', #35 ) ;
#25 = CIRCLE ( 'NONE', #251, 6.000000000000000888 ) ;
#26 = LOCAL_TIME ( 11, 46, 38.00000000000000000, #306 ) ;
#27 = ORIENTED_EDGE ( 'NONE', *, *, #197, .F. ) ;
#28 = DIRECTION ( 'NONE',  ( 0.000000000000000000, 0.000000000000000000, 1.000000000000000000 ) ) ;
#29 = DIRECTION ( 'NONE',  ( 0.000000000000000000, 0.000000000000000000, 1.000000000000000000 ) ) ;
#30 = CYLINDRICAL_SURFACE ( 'NONE', #47, 9.000000000000000000 ) ;
#31 = APPROVAL ( #123, 'NEURÈENÝ' ) ;
#32 = CARTESIAN_POINT ( 'NONE',  ( 9.000000000000000000, 1.102182119232617714E-15, 7.000000000000000000 ) ) ;
#33 = FACE_OUTER_BOUND ( 'NONE', #104, .T. ) ;
#34 = EDGE_CURVE ( 'NONE', #220, #24, #25, .T. ) ;
#35 = CARTESIAN_POINT ( 'NONE',  ( 6.000000000000000888, 7.347880794884120722E-16, 322.0000000000000000 ) ) ;
#36 = CIRCLE ( 'NONE', #127, 9.000000000000000000 ) ;
#37 = ADVANCED_FACE ( 'NONE', ( #172 ), #100, .F. ) ;
#38 = ORGANIZATION ( 'NEURÈENÝ', 'NEURÈENÝ', '' ) ;
#39 = APPLICATION_CONTEXT ( 'configuration controlled 3d designs of mechanical parts and assemblies' ) ;
#40 = CARTESIAN_POINT ( 'NONE',  ( 0.000000000000000000, 0.000000000000000000, 7.000000000000000000 ) ) ;
#41 = CARTESIAN_POINT ( 'NONE',  ( 0.000000000000000000, 0.000000000000000000, 7.000000000000000000 ) ) ;
#42 = ORIENTED_EDGE ( 'NONE', *, *, #3, .F. ) ;
#43 = APPROVAL_PERSON_ORGANIZATION ( #20, #31, #276 ) ;
#44 = CARTESIAN_POINT ( 'NONE',  ( -6.000000000000000888, 0.000000000000000000, 322.0000000000000000 ) ) ;
#45 = CARTESIAN_POINT ( 'NONE',  ( 0.000000000000000000, 0.000000000000000000, 7.000000000000000000 ) ) ;
#46 = CARTESIAN_POINT ( 'NONE',  ( 0.000000000000000000, 0.000000000000000000, 0.000000000000000000 ) ) ;
#47 = AXIS2_PLACEMENT_3D ( 'NONE', #264, #151, #244 ) ;
#48 = DATE_AND_TIME ( #91, #66 ) ;
#49 = PERSON_AND_ORGANIZATION_ROLE ( 'creator' ) ;
#50 = ADVANCED_BREP_SHAPE_REPRESENTATION ( '03a3', ( #139, #19 ), #304 ) ;
#51 = UNCERTAINTY_MEASURE_WITH_UNIT (LENGTH_MEASURE( 1.000000000000000082E-05 ), #162, 'distance_accuracy_value', 'NONE');
#52 = VERTEX_POINT ( 'NONE', #153 ) ;
#53 = AXIS2_PLACEMENT_3D ( 'NONE', #131, #222, #246 ) ;
#54 = MECHANICAL_CONTEXT ( 'NONE', #39, 'mechanical' ) ;
#55 = CC_DESIGN_APPROVAL ( #223, ( #221 ) ) ;
#56 = EDGE_CURVE ( 'NONE', #280, #275, #185, .T. ) ;
#57 = DIRECTION ( 'NONE',  ( 1.000000000000000000, 0.000000000000000000, -0.000000000000000000 ) ) ;
#58 = ORIENTED_EDGE ( 'NONE', *, *, #124, .F. ) ;
#59 = ORIENTED_EDGE ( 'NONE', *, *, #68, .F. ) ;
#60 = CIRCLE ( 'NONE', #126, 6.000000000000000888 ) ;
#61 = ORIENTED_EDGE ( 'NONE', *, *, #282, .T. ) ;
#62 = DIRECTION ( 'NONE',  ( -1.000000000000000000, 0.000000000000000000, 0.000000000000000000 ) ) ;
#63 = CARTESIAN_POINT ( 'NONE',  ( 0.000000000000000000, 0.000000000000000000, 322.0000000000000000 ) ) ;
#64 = CARTESIAN_POINT ( 'NONE',  ( 0.000000000000000000, 0.000000000000000000, 7.199999999999984190 ) ) ;
#65 = FACE_OUTER_BOUND ( 'NONE', #225, .T. ) ;
#66 = LOCAL_TIME ( 11, 46, 38.00000000000000000, #113 ) ;
#67 = DIRECTION ( 'NONE',  ( 1.000000000000000000, 0.000000000000000000, 0.000000000000000000 ) ) ;
#68 = EDGE_CURVE ( 'NONE', #9, #275, #291, .T. ) ;
#69 = PERSON_AND_ORGANIZATION ( #174, #38 ) ;
#70 = PERSON_AND_ORGANIZATION_ROLE ( 'creator' ) ;
#71 = CC_DESIGN_PERSON_AND_ORGANIZATION_ASSIGNMENT ( #165, #49, ( #298 ) ) ;
#72 = COORDINATED_UNIVERSAL_TIME_OFFSET ( 1, 0, .AHEAD. ) ;
#73 = EDGE_LOOP ( 'NONE', ( #226, #142, #125, #133 ) ) ;
#74 = EDGE_CURVE ( 'NONE', #167, #52, #98, .T. ) ;
#75 = DIRECTION ( 'NONE',  ( 1.000000000000000000, 0.000000000000000000, 0.000000000000000000 ) ) ;
#76 = EDGE_LOOP ( 'NONE', ( #219, #245, #122, #58 ) ) ;
#77 = FACE_OUTER_BOUND ( 'NONE', #73, .T. ) ;
#78 = DIRECTION ( 'NONE',  ( -0.000000000000000000, -0.000000000000000000, -1.000000000000000000 ) ) ;
#79 = CARTESIAN_POINT ( 'NONE',  ( 0.000000000000000000, 0.000000000000000000, 322.0000000000000000 ) ) ;
#80 = LINE ( 'NONE', #295, #170 ) ;
#81 = VECTOR ( 'NONE', #78, 1000.000000000000000 ) ;
#82 = CIRCLE ( 'NONE', #254, 0.1999999999999996503 ) ;
#83 = CARTESIAN_POINT ( 'NONE',  ( 0.000000000000000000, 0.000000000000000000, 0.000000000000000000 ) ) ;
#84 = DIRECTION ( 'NONE',  ( -1.000000000000000000, 0.000000000000000000, 0.000000000000000000 ) ) ;
#85 = ADVANCED_FACE ( 'NONE', ( #33 ), #30, .T. ) ;
#86 = DIRECTION ( 'NONE',  ( 1.000000000000000000, 0.000000000000000000, 0.000000000000000000 ) ) ;
#87 = AXIS2_PLACEMENT_3D ( 'NONE', #41, #180, #67 ) ;
#88 = VERTEX_POINT ( 'NONE', #32 ) ;
#89 = ADVANCED_FACE ( 'NONE', ( #129 ), #159, .F. ) ;
#90 = APPLICATION_PROTOCOL_DEFINITION ( 'international standard', 'config_control_design', 1994, #39 ) ;
#91 = CALENDAR_DATE ( 2022, 7, 7 ) ;
#92 = PERSON_AND_ORGANIZATION ( #174, #38 ) ;
#93 = AXIS2_PLACEMENT_3D ( 'NONE', #79, #249, #154 ) ;
#94 = DATE_AND_TIME ( #237, #160 ) ;
#95 = APPROVAL_DATE_TIME ( #48, #31 ) ;
#96 = ORIENTED_EDGE ( 'NONE', *, *, #296, .T. ) ;
#97 = ORIENTED_EDGE ( 'NONE', *, *, #141, .F. ) ;
#98 = CIRCLE ( 'NONE', #179, 9.000000000000000000 ) ;
#99 = CC_DESIGN_APPROVAL ( #207, ( #298 ) ) ;
#100 = PLANE ( 'NONE',  #119 ) ;
#101 = EDGE_LOOP ( 'NONE', ( #169, #183, #208, #59 ) ) ;
#102 = CARTESIAN_POINT ( 'NONE',  ( 6.000000000000000888, 7.347880794884120722E-16, 7.199999999999984190 ) ) ;
#103 = CIRCLE ( 'NONE', #285, 6.000000000000000888 ) ;
#104 = EDGE_LOOP ( 'NONE', ( #42, #143, #161, #224 ) ) ;
#105 = DIRECTION ( 'NONE',  ( 1.224646799147353207E-16, 1.000000000000000000, -0.000000000000000000 ) ) ;
#106 = DIRECTION ( 'NONE',  ( 1.000000000000000000, 0.000000000000000000, 0.000000000000000000 ) ) ;
#107 = AXIS2_PLACEMENT_3D ( 'NONE', #40, #252, #299 ) ;
#108 = CYLINDRICAL_SURFACE ( 'NONE', #186, 9.000000000000000000 ) ;
#109 = EDGE_CURVE ( 'NONE', #24, #9, #199, .T. ) ;
#110 = CARTESIAN_POINT ( 'NONE',  ( 0.000000000000000000, 0.000000000000000000, 7.000000000000000000 ) ) ;
#111 = EDGE_LOOP ( 'NONE', ( #27, #210, #260, #7 ) ) ;
#112 = DIRECTION ( 'NONE',  ( 0.000000000000000000, 0.000000000000000000, 1.000000000000000000 ) ) ;
#113 = COORDINATED_UNIVERSAL_TIME_OFFSET ( 1, 0, .AHEAD. ) ;
#114 = APPLICATION_PROTOCOL_DEFINITION ( 'international standard', 'config_control_design', 1994, #216 ) ;
#115 = ADVANCED_FACE ( 'NONE', ( #77 ), #176, .T. ) ;
#116 = APPROVAL_DATE_TIME ( #1, #223 ) ;
#117 = CC_DESIGN_DATE_AND_TIME_ASSIGNMENT ( #94, #255, ( #146 ) ) ;
#118 = DESIGN_CONTEXT ( 'detailed design', #216, 'design' ) ;
#119 = AXIS2_PLACEMENT_3D ( 'NONE', #261, #150, #57 ) ;
#120 = LOCAL_TIME ( 11, 46, 38.00000000000000000, #234 ) ;
#121 = PERSON_AND_ORGANIZATION ( #174, #38 ) ;
#122 = ORIENTED_EDGE ( 'NONE', *, *, #141, .T. ) ;
#123 = APPROVAL_STATUS ( 'not_yet_approved' ) ;
#124 = EDGE_CURVE ( 'NONE', #17, #167, #80, .T. ) ;
#125 = ORIENTED_EDGE ( 'NONE', *, *, #273, .T. ) ;
#126 = AXIS2_PLACEMENT_3D ( 'NONE', #63, #138, #206 ) ;
#127 = AXIS2_PLACEMENT_3D ( 'NONE', #83, #181, #158 ) ;
#128 = CARTESIAN_POINT ( 'NONE',  ( 9.000000000000000000, 1.102182119232617714E-15, 7.000000000000000000 ) ) ;
#129 = FACE_OUTER_BOUND ( 'NONE', #101, .T. ) ;
#130 = EDGE_CURVE ( 'NONE', #17, #88, #253, .T. ) ;
#131 = CARTESIAN_POINT ( 'NONE',  ( 0.000000000000000000, 0.000000000000000000, 322.0000000000000000 ) ) ;
#132 = AXIS2_PLACEMENT_3D ( 'NONE', #6, #241, #262 ) ;
#133 = ORIENTED_EDGE ( 'NONE', *, *, #184, .F. ) ;
#134 = AXIS2_PLACEMENT_3D ( 'NONE', #135, #209, #272 ) ;
#135 = CARTESIAN_POINT ( 'NONE',  ( 0.000000000000000000, 0.000000000000000000, 7.199999999999984190 ) ) ;
#136 = DIRECTION ( 'NONE',  ( 1.000000000000000000, 0.000000000000000000, 0.000000000000000000 ) ) ;
#137 = CC_DESIGN_PERSON_AND_ORGANIZATION_ASSIGNMENT ( #23, #164, ( #221 ) ) ;
#138 = DIRECTION ( 'NONE',  ( 0.000000000000000000, 0.000000000000000000, 1.000000000000000000 ) ) ;
#139 = MANIFOLD_SOLID_BREP ( 'Zaoblit1', #233 ) ;
#140 = DIRECTION ( 'NONE',  ( 0.000000000000000000, 0.000000000000000000, 1.000000000000000000 ) ) ;
#141 = EDGE_CURVE ( 'NONE', #52, #167, #36, .T. ) ;
#142 = ORIENTED_EDGE ( 'NONE', *, *, #109, .T. ) ;
#143 = ORIENTED_EDGE ( 'NONE', *, *, #130, .F. ) ;
#144 = DIRECTION ( 'NONE',  ( 1.000000000000000000, 0.000000000000000000, 0.000000000000000000 ) ) ;
#145 = PERSON_AND_ORGANIZATION_ROLE ( 'design_supplier' ) ;
#146 = PRODUCT_DEFINITION ( 'NEZNÁMÝ', '', #298, #118 ) ;
#147 = PERSON_AND_ORGANIZATION ( #174, #38 ) ;
#148 = EDGE_CURVE ( 'NONE', #24, #220, #60, .T. ) ;
#149 = DIRECTION ( 'NONE',  ( -0.000000000000000000, -0.000000000000000000, -1.000000000000000000 ) ) ;
#150 = DIRECTION ( 'NONE',  ( 0.000000000000000000, 0.000000000000000000, 1.000000000000000000 ) ) ;
#151 = DIRECTION ( 'NONE',  ( -0.000000000000000000, -0.000000000000000000, -1.000000000000000000 ) ) ;
#152 = CARTESIAN_POINT ( 'NONE',  ( -9.000000000000000000, 0.000000000000000000, 7.000000000000000000 ) ) ;
#153 = CARTESIAN_POINT ( 'NONE',  ( 9.000000000000000000, 1.102182119232617714E-15, 0.000000000000000000 ) ) ;
#154 = DIRECTION ( 'NONE',  ( 1.000000000000000000, 0.000000000000000000, -0.000000000000000000 ) ) ;
#155 = CIRCLE ( 'NONE', #134, 6.000000000000000888 ) ;
#156 = CARTESIAN_POINT ( 'NONE',  ( -6.000000000000000888, 0.000000000000000000, 322.0000000000000000 ) ) ;
#157 = CARTESIAN_POINT ( 'NONE',  ( -6.200000000000001066, 7.592810154713590821E-16, 7.199999999999984190 ) ) ;
#158 = DIRECTION ( 'NONE',  ( 1.000000000000000000, 0.000000000000000000, 0.000000000000000000 ) ) ;
#159 = TOROIDAL_SURFACE ( 'NONE', #200, 6.200000000000001066, 0.2000000000000000111 ) ;
#160 = LOCAL_TIME ( 11, 46, 38.00000000000000000, #72 ) ;
#161 = ORIENTED_EDGE ( 'NONE', *, *, #124, .T. ) ;
#162 =( LENGTH_UNIT ( ) NAMED_UNIT ( * ) SI_UNIT ( .MILLI., .METRE. ) );
#163 = SECURITY_CLASSIFICATION_LEVEL ( 'unclassified' ) ;
#164 = PERSON_AND_ORGANIZATION_ROLE ( 'classification_officer' ) ;
#165 = PERSON_AND_ORGANIZATION ( #174, #38 ) ;
#166 = PRODUCT_RELATED_PRODUCT_CATEGORY ( 'detail', '', ( #263 ) ) ;
#167 = VERTEX_POINT ( 'NONE', #229 ) ;
#168 = PERSON_AND_ORGANIZATION_ROLE ( 'design_owner' ) ;
#169 = ORIENTED_EDGE ( 'NONE', *, *, #218, .F. ) ;
#170 = VECTOR ( 'NONE', #182, 1000.000000000000000 ) ;
#171 = CYLINDRICAL_SURFACE ( 'NONE', #53, 6.000000000000000888 ) ;
#172 = FACE_OUTER_BOUND ( 'NONE', #187, .T. ) ;
#173 = CARTESIAN_POINT ( 'NONE',  ( 0.000000000000000000, 0.000000000000000000, 0.000000000000000000 ) ) ;
#174 = PERSON ( 'NEURÈENÝ', 'NEURÈENÝ', 'NEURÈENÝ', ('NEURÈENÝ'), ('NEURÈENÝ'), ('NEURÈENÝ') ) ;
#175 = AXIS2_PLACEMENT_3D ( 'NONE', #211, #140, #136 ) ;
#176 = CYLINDRICAL_SURFACE ( 'NONE', #303, 6.000000000000000888 ) ;
#177 = DIRECTION ( 'NONE',  ( -0.000000000000000000, -0.000000000000000000, -1.000000000000000000 ) ) ;
#178 = CARTESIAN_POINT ( 'NONE',  ( -6.000000000000000888, 0.000000000000000000, 7.199999999999984190 ) ) ;
#179 = AXIS2_PLACEMENT_3D ( 'NONE', #173, #29, #242 ) ;
#180 = DIRECTION ( 'NONE',  ( 0.000000000000000000, 0.000000000000000000, 1.000000000000000000 ) ) ;
#181 = DIRECTION ( 'NONE',  ( 0.000000000000000000, 0.000000000000000000, 1.000000000000000000 ) ) ;
#182 = DIRECTION ( 'NONE',  ( -0.000000000000000000, -0.000000000000000000, -1.000000000000000000 ) ) ;
#183 = ORIENTED_EDGE ( 'NONE', *, *, #197, .T. ) ;
#184 = EDGE_CURVE ( 'NONE', #220, #283, #300, .T. ) ;
#185 = CIRCLE ( 'NONE', #284, 6.200000000000001066 ) ;
#186 = AXIS2_PLACEMENT_3D ( 'NONE', #45, #16, #84 ) ;
#187 = EDGE_LOOP ( 'NONE', ( #194, #97 ) ) ;
#188 = APPROVAL_DATE_TIME ( #279, #207 ) ;
#189 = ADVANCED_FACE ( 'NONE', ( #232 ), #297, .F. ) ;
#190 = DATE_AND_TIME ( #193, #120 ) ;
#191 = CALENDAR_DATE ( 2022, 7, 7 ) ;
#192 = ORIENTED_EDGE ( 'NONE', *, *, #184, .T. ) ;
#193 = CALENDAR_DATE ( 2022, 7, 7 ) ;
#194 = ORIENTED_EDGE ( 'NONE', *, *, #74, .F. ) ;
#195 = AXIS2_PLACEMENT_3D ( 'NONE', #110, #301, #86 ) ;
#196 = DIRECTION ( 'NONE',  ( 0.000000000000000000, 0.000000000000000000, 1.000000000000000000 ) ) ;
#197 = EDGE_CURVE ( 'NONE', #283, #280, #82, .T. ) ;
#198 = DIRECTION ( 'NONE',  ( 1.000000000000000000, 0.000000000000000000, 0.000000000000000000 ) ) ;
#199 = LINE ( 'NONE', #290, #81 ) ;
#200 = AXIS2_PLACEMENT_3D ( 'NONE', #201, #293, #266 ) ;
#201 = CARTESIAN_POINT ( 'NONE',  ( 0.000000000000000000, 0.000000000000000000, 7.199999999999984190 ) ) ;
#202 = LINE ( 'NONE', #128, #8 ) ;
#203 = FACE_OUTER_BOUND ( 'NONE', #302, .T. ) ;
#204 = CARTESIAN_POINT ( 'NONE',  ( 6.200000000000001066, 0.000000000000000000, 6.999999999999992006 ) ) ;
#205 = ADVANCED_FACE ( 'NONE', ( #270, #203 ), #228, .T. ) ;
#206 = DIRECTION ( 'NONE',  ( 1.000000000000000000, 0.000000000000000000, 0.000000000000000000 ) ) ;
#207 = APPROVAL ( #307, 'NEURÈENÝ' ) ;
#208 = ORIENTED_EDGE ( 'NONE', *, *, #296, .F. ) ;
#209 = DIRECTION ( 'NONE',  ( 0.000000000000000000, 0.000000000000000000, 1.000000000000000000 ) ) ;
#210 = ORIENTED_EDGE ( 'NONE', *, *, #273, .F. ) ;
#211 = CARTESIAN_POINT ( 'NONE',  ( 0.000000000000000000, 0.000000000000000000, 7.199999999999984190 ) ) ;
#212 = PERSON_AND_ORGANIZATION ( #174, #38 ) ;
#213 = SHAPE_DEFINITION_REPRESENTATION ( #289, #50 ) ;
#214 = EDGE_LOOP ( 'NONE', ( #96, #287 ) ) ;
#215 = VECTOR ( 'NONE', #12, 1000.000000000000000 ) ;
#216 = APPLICATION_CONTEXT ( 'configuration controlled 3d designs of mechanical parts and assemblies' ) ;
#217 = EDGE_LOOP ( 'NONE', ( #15, #258, #192, #238 ) ) ;
#218 = EDGE_CURVE ( 'NONE', #283, #9, #103, .T. ) ;
#219 = ORIENTED_EDGE ( 'NONE', *, *, #282, .F. ) ;
#220 = VERTEX_POINT ( 'NONE', #156 ) ;
#221 = SECURITY_CLASSIFICATION ( '', '', #163 ) ;
#222 = DIRECTION ( 'NONE',  ( -0.000000000000000000, -0.000000000000000000, -1.000000000000000000 ) ) ;
#223 = APPROVAL ( #305, 'NEURÈENÝ' ) ;
#224 = ORIENTED_EDGE ( 'NONE', *, *, #74, .T. ) ;
#225 = EDGE_LOOP ( 'NONE', ( #2, #250 ) ) ;
#226 = ORIENTED_EDGE ( 'NONE', *, *, #148, .F. ) ;
#227 = DIRECTION ( 'NONE',  ( 0.000000000000000000, 0.000000000000000000, 1.000000000000000000 ) ) ;
#228 = PLANE ( 'NONE',  #239 ) ;
#229 = CARTESIAN_POINT ( 'NONE',  ( -9.000000000000000000, 0.000000000000000000, 0.000000000000000000 ) ) ;
#230 = FACE_OUTER_BOUND ( 'NONE', #76, .T. ) ;
#231 = ORIENTED_EDGE ( 'NONE', *, *, #130, .T. ) ;
#232 = FACE_OUTER_BOUND ( 'NONE', #111, .T. ) ;
#233 = CLOSED_SHELL ( 'NONE', ( #89, #115, #288, #85, #205, #37, #21, #236, #189 ) ) ;
#234 = COORDINATED_UNIVERSAL_TIME_OFFSET ( 1, 0, .AHEAD. ) ;
#235 = APPROVAL_ROLE ( '' ) ;
#236 = ADVANCED_FACE ( 'NONE', ( #65 ), #248, .T. ) ;
#237 = CALENDAR_DATE ( 2022, 7, 7 ) ;
#238 = ORIENTED_EDGE ( 'NONE', *, *, #218, .T. ) ;
#239 = AXIS2_PLACEMENT_3D ( 'NONE', #10, #227, #18 ) ;
#240 =( NAMED_UNIT ( * ) SI_UNIT ( $, .STERADIAN. ) SOLID_ANGLE_UNIT ( ) );
#241 = DIRECTION ( 'NONE',  ( 0.000000000000000000, -1.000000000000000000, 0.000000000000000000 ) ) ;
#242 = DIRECTION ( 'NONE',  ( 1.000000000000000000, 0.000000000000000000, 0.000000000000000000 ) ) ;
#243 = CC_DESIGN_SECURITY_CLASSIFICATION ( #221, ( #298 ) ) ;
#244 = DIRECTION ( 'NONE',  ( -1.000000000000000000, 0.000000000000000000, 0.000000000000000000 ) ) ;
#245 = ORIENTED_EDGE ( 'NONE', *, *, #3, .T. ) ;
#246 = DIRECTION ( 'NONE',  ( -1.000000000000000000, 0.000000000000000000, 0.000000000000000000 ) ) ;
#247 =( NAMED_UNIT ( * ) PLANE_ANGLE_UNIT ( ) SI_UNIT ( $, .RADIAN. ) );
#248 = PLANE ( 'NONE',  #93 ) ;
#249 = DIRECTION ( 'NONE',  ( 0.000000000000000000, 0.000000000000000000, 1.000000000000000000 ) ) ;
#250 = ORIENTED_EDGE ( 'NONE', *, *, #148, .T. ) ;
#251 = AXIS2_PLACEMENT_3D ( 'NONE', #5, #196, #198 ) ;
#252 = DIRECTION ( 'NONE',  ( 0.000000000000000000, 0.000000000000000000, 1.000000000000000000 ) ) ;
#253 = CIRCLE ( 'NONE', #87, 9.000000000000000000 ) ;
#254 = AXIS2_PLACEMENT_3D ( 'NONE', #157, #105, #269 ) ;
#255 = DATE_TIME_ROLE ( 'creation_date' ) ;
#256 = CC_DESIGN_PERSON_AND_ORGANIZATION_ASSIGNMENT ( #69, #168, ( #263 ) ) ;
#257 = APPROVAL_ROLE ( '' ) ;
#258 = ORIENTED_EDGE ( 'NONE', *, *, #34, .F. ) ;
#259 = DATE_TIME_ROLE ( 'classification_date' ) ;
#260 = ORIENTED_EDGE ( 'NONE', *, *, #68, .T. ) ;
#261 = CARTESIAN_POINT ( 'NONE',  ( 0.000000000000000000, 0.000000000000000000, 0.000000000000000000 ) ) ;
#262 = DIRECTION ( 'NONE',  ( 0.000000000000000000, 0.000000000000000000, -1.000000000000000000 ) ) ;
#263 = PRODUCT ( '03a3', '03a3', '', ( #54 ) ) ;
#264 = CARTESIAN_POINT ( 'NONE',  ( 0.000000000000000000, 0.000000000000000000, 7.000000000000000000 ) ) ;
#265 = APPROVAL_PERSON_ORGANIZATION ( #212, #207, #257 ) ;
#266 = DIRECTION ( 'NONE',  ( 1.000000000000000000, 0.000000000000000000, 0.000000000000000000 ) ) ;
#267 = CARTESIAN_POINT ( 'NONE',  ( 0.000000000000000000, 0.000000000000000000, 322.0000000000000000 ) ) ;
#268 = APPROVAL_PERSON_ORGANIZATION ( #147, #223, #235 ) ;
#269 = DIRECTION ( 'NONE',  ( -1.000000000000000000, 1.224646799147353454E-16, 0.000000000000000000 ) ) ;
#270 = FACE_BOUND ( 'NONE', #214, .T. ) ;
#271 = CC_DESIGN_DATE_AND_TIME_ASSIGNMENT ( #190, #259, ( #221 ) ) ;
#272 = DIRECTION ( 'NONE',  ( 1.000000000000000000, 0.000000000000000000, 0.000000000000000000 ) ) ;
#273 = EDGE_CURVE ( 'NONE', #9, #283, #155, .T. ) ;
#274 = CIRCLE ( 'NONE', #107, 9.000000000000000000 ) ;
#275 = VERTEX_POINT ( 'NONE', #204 ) ;
#276 = APPROVAL_ROLE ( '' ) ;
#277 = CIRCLE ( 'NONE', #195, 6.200000000000001066 ) ;
#278 = CC_DESIGN_PERSON_AND_ORGANIZATION_ASSIGNMENT ( #121, #70, ( #146 ) ) ;
#279 = DATE_AND_TIME ( #191, #26 ) ;
#280 = VERTEX_POINT ( 'NONE', #14 ) ;
#281 = COORDINATED_UNIVERSAL_TIME_OFFSET ( 1, 0, .AHEAD. ) ;
#282 = EDGE_CURVE ( 'NONE', #88, #17, #274, .T. ) ;
#283 = VERTEX_POINT ( 'NONE', #178 ) ;
#284 = AXIS2_PLACEMENT_3D ( 'NONE', #286, #149, #75 ) ;
#285 = AXIS2_PLACEMENT_3D ( 'NONE', #64, #112, #106 ) ;
#286 = CARTESIAN_POINT ( 'NONE',  ( 0.000000000000000000, 0.000000000000000000, 7.000000000000000000 ) ) ;
#287 = ORIENTED_EDGE ( 'NONE', *, *, #56, .T. ) ;
#288 = ADVANCED_FACE ( 'NONE', ( #230 ), #108, .T. ) ;
#289 = PRODUCT_DEFINITION_SHAPE ( 'NONE', 'NONE',  #146 ) ;
#290 = CARTESIAN_POINT ( 'NONE',  ( 6.000000000000000888, 7.347880794884120722E-16, 322.0000000000000000 ) ) ;
#291 = CIRCLE ( 'NONE', #132, 0.1999999999999996503 ) ;
#292 = LOCAL_TIME ( 11, 46, 38.00000000000000000, #281 ) ;
#293 = DIRECTION ( 'NONE',  ( 0.000000000000000000, 0.000000000000000000, 1.000000000000000000 ) ) ;
#294 = DIRECTION ( 'NONE',  ( -0.000000000000000000, -0.000000000000000000, -1.000000000000000000 ) ) ;
#295 = CARTESIAN_POINT ( 'NONE',  ( -9.000000000000000000, 0.000000000000000000, 7.000000000000000000 ) ) ;
#296 = EDGE_CURVE ( 'NONE', #275, #280, #277, .T. ) ;
#297 = TOROIDAL_SURFACE ( 'NONE', #175, 6.200000000000001066, 0.2000000000000000111 ) ;
#298 = PRODUCT_DEFINITION_FORMATION_WITH_SPECIFIED_SOURCE ( 'LIBOVOLNÝ', '', #263, .NOT_KNOWN. ) ;
#299 = DIRECTION ( 'NONE',  ( 1.000000000000000000, 0.000000000000000000, 0.000000000000000000 ) ) ;
#300 = LINE ( 'NONE', #44, #215 ) ;
#301 = DIRECTION ( 'NONE',  ( -0.000000000000000000, -0.000000000000000000, -1.000000000000000000 ) ) ;
#302 = EDGE_LOOP ( 'NONE', ( #231, #61 ) ) ;
#303 = AXIS2_PLACEMENT_3D ( 'NONE', #267, #177, #62 ) ;
#304 =( GEOMETRIC_REPRESENTATION_CONTEXT ( 3 ) GLOBAL_UNCERTAINTY_ASSIGNED_CONTEXT ( ( #51 ) ) GLOBAL_UNIT_ASSIGNED_CONTEXT ( ( #162, #247, #240 ) ) REPRESENTATION_CONTEXT ( 'NONE', 'WORKASPACE' ) );
#305 = APPROVAL_STATUS ( 'not_yet_approved' ) ;
#306 = COORDINATED_UNIVERSAL_TIME_OFFSET ( 1, 0, .AHEAD. ) ;
#307 = APPROVAL_STATUS ( 'not_yet_approved' ) ;
ENDSEC;
END-ISO-10303-21;
