ISO-10303-21;
HEADER;
FILE_DESCRIPTION (( 'STEP AP203' ),
    '1' );
FILE_NAME ('3149.STEP',
    '2022-07-07T10:32:32',
    ( '' ),
    ( '' ),
    'SwSTEP 2.0',
    'SolidWorks 2019',
    '' );
FILE_SCHEMA (( 'CONFIG_CONTROL_DESIGN' ));
ENDSEC;

DATA;
#1 = DIRECTION ( 'NONE',  ( 0.000000000000000000, 0.000000000000000000, 1.000000000000000000 ) ) ;
#2 = FACE_OUTER_BOUND ( 'NONE', #60, .T. ) ;
#3 = LOCAL_TIME ( 12, 32, 32.00000000000000000, #301 ) ;
#4 = DIRECTION ( 'NONE',  ( -0.000000000000000000, -0.000000000000000000, -1.000000000000000000 ) ) ;
#5 = CARTESIAN_POINT ( 'NONE',  ( 0.000000000000000000, 0.000000000000000000, 402.0000000000000000 ) ) ;
#6 = DIRECTION ( 'NONE',  ( 0.000000000000000000, 0.000000000000000000, 1.000000000000000000 ) ) ;
#7 = AXIS2_PLACEMENT_3D ( 'NONE', #159, #281, #88 ) ;
#8 = ADVANCED_FACE ( 'NONE', ( #40 ), #299, .T. ) ;
#9 = ORIENTED_EDGE ( 'NONE', *, *, #216, .T. ) ;
#10 = LOCAL_TIME ( 12, 32, 32.00000000000000000, #25 ) ;
#11 = EDGE_CURVE ( 'NONE', #269, #77, #212, .T. ) ;
#12 = ADVANCED_BREP_SHAPE_REPRESENTATION ( '3149', ( #76, #206 ), #73 ) ;
#13 = PRODUCT_DEFINITION_SHAPE ( 'NONE', 'NONE',  #137 ) ;
#14 = PERSON_AND_ORGANIZATION ( #138, #285 ) ;
#15 = ORIENTED_EDGE ( 'NONE', *, *, #179, .T. ) ;
#16 = AXIS2_PLACEMENT_3D ( 'NONE', #149, #288, #236 ) ;
#17 = EDGE_LOOP ( 'NONE', ( #136, #274, #197, #67 ) ) ;
#18 = APPROVAL_ROLE ( '' ) ;
#19 = ORIENTED_EDGE ( 'NONE', *, *, #290, .T. ) ;
#20 = APPROVAL_DATE_TIME ( #276, #30 ) ;
#21 = CARTESIAN_POINT ( 'NONE',  ( 1.450000000000000178, 0.000000000000000000, 1.999999999999989564 ) ) ;
#22 = CIRCLE ( 'NONE', #195, 1.250000000000000000 ) ;
#23 = COORDINATED_UNIVERSAL_TIME_OFFSET ( 1, 0, .AHEAD. ) ;
#24 = CARTESIAN_POINT ( 'NONE',  ( -1.250000000000000000, 0.000000000000000000, 402.0000000000000000 ) ) ;
#25 = COORDINATED_UNIVERSAL_TIME_OFFSET ( 1, 0, .AHEAD. ) ;
#26 = DIRECTION ( 'NONE',  ( 0.000000000000000000, 0.000000000000000000, 1.000000000000000000 ) ) ;
#27 = DIRECTION ( 'NONE',  ( -0.000000000000000000, -0.000000000000000000, -1.000000000000000000 ) ) ;
#28 = DIRECTION ( 'NONE',  ( -1.000000000000000000, 1.224646799147353207E-16, 0.000000000000000000 ) ) ;
#29 = AXIS2_PLACEMENT_3D ( 'NONE', #133, #43, #185 ) ;
#30 = APPROVAL ( #228, 'NEURÈENÝ' ) ;
#31 = CARTESIAN_POINT ( 'NONE',  ( 0.000000000000000000, 0.000000000000000000, 0.000000000000000000 ) ) ;
#32 = CARTESIAN_POINT ( 'NONE',  ( -1.250000000000000000, 0.000000000000000000, 2.199999999999979750 ) ) ;
#33 = CC_DESIGN_PERSON_AND_ORGANIZATION_ASSIGNMENT ( #184, #64, ( #147 ) ) ;
#34 = AXIS2_PLACEMENT_3D ( 'NONE', #286, #6, #242 ) ;
#35 = EDGE_LOOP ( 'NONE', ( #256, #203 ) ) ;
#36 = APPLICATION_CONTEXT ( 'configuration controlled 3d designs of mechanical parts and assemblies' ) ;
#37 = EDGE_LOOP ( 'NONE', ( #81, #164 ) ) ;
#38 = CC_DESIGN_PERSON_AND_ORGANIZATION_ASSIGNMENT ( #110, #204, ( #39 ) ) ;
#39 = PRODUCT_DEFINITION_FORMATION_WITH_SPECIFIED_SOURCE ( 'LIBOVOLNÝ', '', #131, .NOT_KNOWN. ) ;
#40 = FACE_OUTER_BOUND ( 'NONE', #247, .T. ) ;
#41 = COORDINATED_UNIVERSAL_TIME_OFFSET ( 1, 0, .AHEAD. ) ;
#42 = VERTEX_POINT ( 'NONE', #142 ) ;
#43 = DIRECTION ( 'NONE',  ( 0.000000000000000000, 0.000000000000000000, 1.000000000000000000 ) ) ;
#44 = AXIS2_PLACEMENT_3D ( 'NONE', #305, #225, #254 ) ;
#45 = EDGE_CURVE ( 'NONE', #42, #244, #151, .T. ) ;
#46 = PERSON_AND_ORGANIZATION ( #138, #285 ) ;
#47 = DIRECTION ( 'NONE',  ( 1.000000000000000000, 0.000000000000000000, 0.000000000000000000 ) ) ;
#48 = CARTESIAN_POINT ( 'NONE',  ( 1.250000000000000000, 1.530808498934191571E-16, 402.0000000000000000 ) ) ;
#49 = CARTESIAN_POINT ( 'NONE',  ( 0.000000000000000000, 0.000000000000000000, 0.000000000000000000 ) ) ;
#50 = CARTESIAN_POINT ( 'NONE',  ( -1.450000000000000178, 1.775737858763662409E-16, 1.999999999999989564 ) ) ;
#51 = DIRECTION ( 'NONE',  ( 1.000000000000000000, 0.000000000000000000, -0.000000000000000000 ) ) ;
#52 = EDGE_CURVE ( 'NONE', #269, #217, #263, .T. ) ;
#53 = AXIS2_PLACEMENT_3D ( 'NONE', #120, #148, #239 ) ;
#54 = ORIENTED_EDGE ( 'NONE', *, *, #45, .T. ) ;
#55 = TOROIDAL_SURFACE ( 'NONE', #232, 1.450000000000000178, 0.2000000000000000111 ) ;
#56 = ORIENTED_EDGE ( 'NONE', *, *, #265, .F. ) ;
#57 = EDGE_CURVE ( 'NONE', #126, #217, #158, .T. ) ;
#58 = DIRECTION ( 'NONE',  ( 1.000000000000000000, 0.000000000000000000, 0.000000000000000000 ) ) ;
#59 = MECHANICAL_CONTEXT ( 'NONE', #234, 'mechanical' ) ;
#60 = EDGE_LOOP ( 'NONE', ( #155, #235, #102, #15 ) ) ;
#61 = CC_DESIGN_APPROVAL ( #30, ( #39 ) ) ;
#62 = DESIGN_CONTEXT ( 'detailed design', #36, 'design' ) ;
#63 = CARTESIAN_POINT ( 'NONE',  ( 0.000000000000000000, 0.000000000000000000, 2.000000000000000000 ) ) ;
#64 = PERSON_AND_ORGANIZATION_ROLE ( 'classification_officer' ) ;
#65 = ORIENTED_EDGE ( 'NONE', *, *, #292, .T. ) ;
#66 = EDGE_CURVE ( 'NONE', #201, #269, #182, .T. ) ;
#67 = ORIENTED_EDGE ( 'NONE', *, *, #11, .F. ) ;
#68 = CYLINDRICAL_SURFACE ( 'NONE', #297, 2.500000000000000000 ) ;
#69 = DIRECTION ( 'NONE',  ( 1.000000000000000000, 0.000000000000000000, 0.000000000000000000 ) ) ;
#70 = DIRECTION ( 'NONE',  ( -0.000000000000000000, -0.000000000000000000, -1.000000000000000000 ) ) ;
#71 = AXIS2_PLACEMENT_3D ( 'NONE', #63, #26, #109 ) ;
#72 = DIRECTION ( 'NONE',  ( 0.000000000000000000, 0.000000000000000000, 1.000000000000000000 ) ) ;
#73 =( GEOMETRIC_REPRESENTATION_CONTEXT ( 3 ) GLOBAL_UNCERTAINTY_ASSIGNED_CONTEXT ( ( #252 ) ) GLOBAL_UNIT_ASSIGNED_CONTEXT ( ( #100, #80, #176 ) ) REPRESENTATION_CONTEXT ( 'NONE', 'WORKASPACE' ) );
#74 = CARTESIAN_POINT ( 'NONE',  ( -1.450000000000000178, 1.775737858763662163E-16, 2.199999999999979750 ) ) ;
#75 = APPROVAL ( #253, 'NEURÈENÝ' ) ;
#76 = MANIFOLD_SOLID_BREP ( 'Zaoblit1', #270 ) ;
#77 = VERTEX_POINT ( 'NONE', #21 ) ;
#78 = APPROVAL_PERSON_ORGANIZATION ( #139, #30, #18 ) ;
#79 = CC_DESIGN_DATE_AND_TIME_ASSIGNMENT ( #282, #257, ( #147 ) ) ;
#80 =( NAMED_UNIT ( * ) PLANE_ANGLE_UNIT ( ) SI_UNIT ( $, .RADIAN. ) );
#81 = ORIENTED_EDGE ( 'NONE', *, *, #130, .T. ) ;
#82 = EDGE_LOOP ( 'NONE', ( #56, #129, #87, #293 ) ) ;
#83 = CIRCLE ( 'NONE', #207, 1.250000000000000000 ) ;
#84 = ADVANCED_FACE ( 'NONE', ( #145, #161 ), #249, .T. ) ;
#85 = PERSON_AND_ORGANIZATION_ROLE ( 'design_owner' ) ;
#86 = EDGE_LOOP ( 'NONE', ( #300, #157, #65, #19 ) ) ;
#87 = ORIENTED_EDGE ( 'NONE', *, *, #11, .T. ) ;
#88 = DIRECTION ( 'NONE',  ( -1.000000000000000000, 0.000000000000000000, 0.000000000000000000 ) ) ;
#89 = TOROIDAL_SURFACE ( 'NONE', #289, 1.450000000000000178, 0.2000000000000000111 ) ;
#90 = SECURITY_CLASSIFICATION_LEVEL ( 'unclassified' ) ;
#91 = FACE_OUTER_BOUND ( 'NONE', #17, .T. ) ;
#92 = DIRECTION ( 'NONE',  ( 1.000000000000000000, 0.000000000000000000, 0.000000000000000000 ) ) ;
#93 = CARTESIAN_POINT ( 'NONE',  ( 0.000000000000000000, 0.000000000000000000, 2.199999999999979750 ) ) ;
#94 = VECTOR ( 'NONE', #98, 1000.000000000000000 ) ;
#95 = CC_DESIGN_SECURITY_CLASSIFICATION ( #147, ( #39 ) ) ;
#96 = DIRECTION ( 'NONE',  ( -1.000000000000000000, 0.000000000000000000, 0.000000000000000000 ) ) ;
#97 = CARTESIAN_POINT ( 'NONE',  ( 0.000000000000000000, 0.000000000000000000, 2.199999999999979750 ) ) ;
#98 = DIRECTION ( 'NONE',  ( -0.000000000000000000, -0.000000000000000000, -1.000000000000000000 ) ) ;
#99 = CARTESIAN_POINT ( 'NONE',  ( -2.500000000000000000, 0.000000000000000000, 0.000000000000000000 ) ) ;
#100 =( LENGTH_UNIT ( ) NAMED_UNIT ( * ) SI_UNIT ( .MILLI., .METRE. ) );
#101 = ORIENTED_EDGE ( 'NONE', *, *, #219, .T. ) ;
#102 = ORIENTED_EDGE ( 'NONE', *, *, #57, .T. ) ;
#103 = CIRCLE ( 'NONE', #124, 2.500000000000000000 ) ;
#104 = DATE_AND_TIME ( #163, #10 ) ;
#105 = ORIENTED_EDGE ( 'NONE', *, *, #219, .F. ) ;
#106 = APPROVAL_DATE_TIME ( #198, #75 ) ;
#107 = DIRECTION ( 'NONE',  ( 0.000000000000000000, 0.000000000000000000, 1.000000000000000000 ) ) ;
#108 = PERSON_AND_ORGANIZATION ( #138, #285 ) ;
#109 = DIRECTION ( 'NONE',  ( 1.000000000000000000, 0.000000000000000000, 0.000000000000000000 ) ) ;
#110 = PERSON_AND_ORGANIZATION ( #138, #285 ) ;
#111 = DIRECTION ( 'NONE',  ( -0.000000000000000000, -0.000000000000000000, -1.000000000000000000 ) ) ;
#112 = VECTOR ( 'NONE', #111, 1000.000000000000000 ) ;
#113 = CALENDAR_DATE ( 2022, 7, 7 ) ;
#114 = DIRECTION ( 'NONE',  ( 0.000000000000000000, 0.000000000000000000, 1.000000000000000000 ) ) ;
#115 = CARTESIAN_POINT ( 'NONE',  ( -2.500000000000000000, 0.000000000000000000, 2.000000000000000000 ) ) ;
#116 = ADVANCED_FACE ( 'NONE', ( #205 ), #231, .T. ) ;
#117 = LINE ( 'NONE', #115, #94 ) ;
#118 = AXIS2_PLACEMENT_3D ( 'NONE', #172, #190, #69 ) ;
#119 = CC_DESIGN_APPROVAL ( #255, ( #147 ) ) ;
#120 = CARTESIAN_POINT ( 'NONE',  ( 0.000000000000000000, 0.000000000000000000, 2.000000000000000000 ) ) ;
#121 = DIRECTION ( 'NONE',  ( 1.000000000000000000, 0.000000000000000000, 0.000000000000000000 ) ) ;
#122 = ADVANCED_FACE ( 'NONE', ( #91 ), #89, .F. ) ;
#123 = DIRECTION ( 'NONE',  ( 0.000000000000000000, 0.000000000000000000, 1.000000000000000000 ) ) ;
#124 = AXIS2_PLACEMENT_3D ( 'NONE', #31, #123, #121 ) ;
#125 = APPLICATION_PROTOCOL_DEFINITION ( 'international standard', 'config_control_design', 1994, #234 ) ;
#126 = VERTEX_POINT ( 'NONE', #24 ) ;
#127 = AXIS2_PLACEMENT_3D ( 'NONE', #283, #258, #47 ) ;
#128 = SHAPE_DEFINITION_REPRESENTATION ( #13, #12 ) ;
#129 = ORIENTED_EDGE ( 'NONE', *, *, #52, .F. ) ;
#130 = EDGE_CURVE ( 'NONE', #126, #201, #175, .T. ) ;
#131 = PRODUCT ( '3149', '3149', '', ( #59 ) ) ;
#132 = PERSON_AND_ORGANIZATION_ROLE ( 'creator' ) ;
#133 = CARTESIAN_POINT ( 'NONE',  ( 0.000000000000000000, 0.000000000000000000, 2.000000000000000000 ) ) ;
#134 = LOCAL_TIME ( 12, 32, 32.00000000000000000, #41 ) ;
#135 = CALENDAR_DATE ( 2022, 7, 7 ) ;
#136 = ORIENTED_EDGE ( 'NONE', *, *, #179, .F. ) ;
#137 = PRODUCT_DEFINITION ( 'NEZNÁMÝ', '', #39, #62 ) ;
#138 = PERSON ( 'NEURÈENÝ', 'NEURÈENÝ', 'NEURÈENÝ', ('NEURÈENÝ'), ('NEURÈENÝ'), ('NEURÈENÝ') ) ;
#139 = PERSON_AND_ORGANIZATION ( #138, #285 ) ;
#140 = DIRECTION ( 'NONE',  ( 0.000000000000000000, 0.000000000000000000, -1.000000000000000000 ) ) ;
#141 = CARTESIAN_POINT ( 'NONE',  ( 0.000000000000000000, 0.000000000000000000, 0.000000000000000000 ) ) ;
#142 = CARTESIAN_POINT ( 'NONE',  ( -2.500000000000000000, 0.000000000000000000, 2.000000000000000000 ) ) ;
#143 = APPROVAL_STATUS ( 'not_yet_approved' ) ;
#144 = ADVANCED_FACE ( 'NONE', ( #214 ), #169, .T. ) ;
#145 = FACE_BOUND ( 'NONE', #35, .T. ) ;
#146 = CYLINDRICAL_SURFACE ( 'NONE', #192, 1.250000000000000000 ) ;
#147 = SECURITY_CLASSIFICATION ( '', '', #90 ) ;
#148 = DIRECTION ( 'NONE',  ( -0.000000000000000000, -0.000000000000000000, -1.000000000000000000 ) ) ;
#149 = CARTESIAN_POINT ( 'NONE',  ( 0.000000000000000000, 0.000000000000000000, 402.0000000000000000 ) ) ;
#150 = FACE_OUTER_BOUND ( 'NONE', #154, .T. ) ;
#151 = CIRCLE ( 'NONE', #71, 2.500000000000000000 ) ;
#152 = PRODUCT_RELATED_PRODUCT_CATEGORY ( 'detail', '', ( #131 ) ) ;
#153 = EDGE_LOOP ( 'NONE', ( #54, #9 ) ) ;
#154 = EDGE_LOOP ( 'NONE', ( #194, #105 ) ) ;
#155 = ORIENTED_EDGE ( 'NONE', *, *, #66, .F. ) ;
#156 = CC_DESIGN_PERSON_AND_ORGANIZATION_ASSIGNMENT ( #14, #85, ( #131 ) ) ;
#157 = ORIENTED_EDGE ( 'NONE', *, *, #45, .F. ) ;
#158 = LINE ( 'NONE', #229, #112 ) ;
#159 = CARTESIAN_POINT ( 'NONE',  ( 0.000000000000000000, 0.000000000000000000, 2.000000000000000000 ) ) ;
#160 = CIRCLE ( 'NONE', #243, 0.2000000000000000944 ) ;
#161 = FACE_OUTER_BOUND ( 'NONE', #153, .T. ) ;
#162 = DIRECTION ( 'NONE',  ( -0.000000000000000000, -0.000000000000000000, -1.000000000000000000 ) ) ;
#163 = CALENDAR_DATE ( 2022, 7, 7 ) ;
#164 = ORIENTED_EDGE ( 'NONE', *, *, #223, .T. ) ;
#165 = AXIS2_PLACEMENT_3D ( 'NONE', #302, #107, #58 ) ;
#166 = ADVANCED_FACE ( 'NONE', ( #150 ), #287, .F. ) ;
#167 = DIRECTION ( 'NONE',  ( -1.000000000000000000, 0.000000000000000000, 0.000000000000000000 ) ) ;
#168 = CARTESIAN_POINT ( 'NONE',  ( 1.250000000000000000, 1.530808498934191571E-16, 2.199999999999979750 ) ) ;
#169 = CYLINDRICAL_SURFACE ( 'NONE', #16, 1.250000000000000000 ) ;
#170 = CC_DESIGN_PERSON_AND_ORGANIZATION_ASSIGNMENT ( #280, #132, ( #137 ) ) ;
#171 = CIRCLE ( 'NONE', #118, 2.500000000000000000 ) ;
#172 = CARTESIAN_POINT ( 'NONE',  ( 0.000000000000000000, 0.000000000000000000, 0.000000000000000000 ) ) ;
#173 = LINE ( 'NONE', #264, #224 ) ;
#174 = ADVANCED_FACE ( 'NONE', ( #2 ), #146, .T. ) ;
#175 = CIRCLE ( 'NONE', #127, 1.250000000000000000 ) ;
#176 =( NAMED_UNIT ( * ) SI_UNIT ( $, .STERADIAN. ) SOLID_ANGLE_UNIT ( ) );
#177 = CIRCLE ( 'NONE', #34, 2.500000000000000000 ) ;
#178 = VERTEX_POINT ( 'NONE', #99 ) ;
#179 = EDGE_CURVE ( 'NONE', #217, #269, #22, .T. ) ;
#180 = VERTEX_POINT ( 'NONE', #50 ) ;
#181 = CALENDAR_DATE ( 2022, 7, 7 ) ;
#182 = LINE ( 'NONE', #278, #250 ) ;
#183 = CIRCLE ( 'NONE', #304, 1.450000000000000178 ) ;
#184 = PERSON_AND_ORGANIZATION ( #138, #285 ) ;
#185 = DIRECTION ( 'NONE',  ( 1.000000000000000000, 0.000000000000000000, -0.000000000000000000 ) ) ;
#186 = FACE_OUTER_BOUND ( 'NONE', #86, .T. ) ;
#187 = APPROVAL_DATE_TIME ( #104, #255 ) ;
#188 = AXIS2_PLACEMENT_3D ( 'NONE', #49, #215, #51 ) ;
#189 = DIRECTION ( 'NONE',  ( 1.224646799147353207E-16, 1.000000000000000000, -0.000000000000000000 ) ) ;
#190 = DIRECTION ( 'NONE',  ( 0.000000000000000000, 0.000000000000000000, 1.000000000000000000 ) ) ;
#191 = CARTESIAN_POINT ( 'NONE',  ( 0.000000000000000000, 0.000000000000000000, 2.000000000000000000 ) ) ;
#192 = AXIS2_PLACEMENT_3D ( 'NONE', #237, #4, #96 ) ;
#193 = DIRECTION ( 'NONE',  ( 1.000000000000000000, 0.000000000000000000, 0.000000000000000000 ) ) ;
#194 = ORIENTED_EDGE ( 'NONE', *, *, #290, .F. ) ;
#195 = AXIS2_PLACEMENT_3D ( 'NONE', #93, #72, #193 ) ;
#196 = ADVANCED_FACE ( 'NONE', ( #291 ), #55, .F. ) ;
#197 = ORIENTED_EDGE ( 'NONE', *, *, #272, .F. ) ;
#198 = DATE_AND_TIME ( #303, #134 ) ;
#199 = CARTESIAN_POINT ( 'NONE',  ( 1.450000000000000178, 0.000000000000000000, 2.199999999999979750 ) ) ;
#200 = CC_DESIGN_PERSON_AND_ORGANIZATION_ASSIGNMENT ( #208, #306, ( #39 ) ) ;
#201 = VERTEX_POINT ( 'NONE', #48 ) ;
#202 = COORDINATED_UNIVERSAL_TIME_OFFSET ( 1, 0, .AHEAD. ) ;
#203 = ORIENTED_EDGE ( 'NONE', *, *, #210, .T. ) ;
#204 = PERSON_AND_ORGANIZATION_ROLE ( 'design_supplier' ) ;
#205 = FACE_OUTER_BOUND ( 'NONE', #37, .T. ) ;
#206 = AXIS2_PLACEMENT_3D ( 'NONE', #141, #222, #248 ) ;
#207 = AXIS2_PLACEMENT_3D ( 'NONE', #5, #1, #262 ) ;
#208 = PERSON_AND_ORGANIZATION ( #138, #285 ) ;
#209 = ORIENTED_EDGE ( 'NONE', *, *, #216, .F. ) ;
#210 = EDGE_CURVE ( 'NONE', #180, #77, #183, .T. ) ;
#211 = DIRECTION ( 'NONE',  ( 1.000000000000000000, 0.000000000000000000, 0.000000000000000000 ) ) ;
#212 = CIRCLE ( 'NONE', #246, 0.2000000000000000944 ) ;
#213 = CARTESIAN_POINT ( 'NONE',  ( 2.500000000000000000, 3.061616997868383141E-16, 0.000000000000000000 ) ) ;
#214 = FACE_OUTER_BOUND ( 'NONE', #221, .T. ) ;
#215 = DIRECTION ( 'NONE',  ( 0.000000000000000000, 0.000000000000000000, 1.000000000000000000 ) ) ;
#216 = EDGE_CURVE ( 'NONE', #244, #42, #177, .T. ) ;
#217 = VERTEX_POINT ( 'NONE', #32 ) ;
#218 = ORIENTED_EDGE ( 'NONE', *, *, #292, .F. ) ;
#219 = EDGE_CURVE ( 'NONE', #275, #178, #171, .T. ) ;
#220 = APPROVAL_PERSON_ORGANIZATION ( #46, #255, #233 ) ;
#221 = EDGE_LOOP ( 'NONE', ( #267, #295, #251, #271 ) ) ;
#222 = DIRECTION ( 'NONE',  ( 0.000000000000000000, 0.000000000000000000, 1.000000000000000000 ) ) ;
#223 = EDGE_CURVE ( 'NONE', #201, #126, #83, .T. ) ;
#224 = VECTOR ( 'NONE', #266, 1000.000000000000000 ) ;
#225 = DIRECTION ( 'NONE',  ( 0.000000000000000000, 0.000000000000000000, 1.000000000000000000 ) ) ;
#226 = DATE_AND_TIME ( #135, #3 ) ;
#227 = DIRECTION ( 'NONE',  ( 0.000000000000000000, -1.000000000000000000, 0.000000000000000000 ) ) ;
#228 = APPROVAL_STATUS ( 'not_yet_approved' ) ;
#229 = CARTESIAN_POINT ( 'NONE',  ( -1.250000000000000000, 0.000000000000000000, 402.0000000000000000 ) ) ;
#230 = APPLICATION_PROTOCOL_DEFINITION ( 'international standard', 'config_control_design', 1994, #36 ) ;
#231 = PLANE ( 'NONE',  #44 ) ;
#232 = AXIS2_PLACEMENT_3D ( 'NONE', #97, #240, #211 ) ;
#233 = APPROVAL_ROLE ( '' ) ;
#234 = APPLICATION_CONTEXT ( 'configuration controlled 3d designs of mechanical parts and assemblies' ) ;
#235 = ORIENTED_EDGE ( 'NONE', *, *, #130, .F. ) ;
#236 = DIRECTION ( 'NONE',  ( -1.000000000000000000, 0.000000000000000000, 0.000000000000000000 ) ) ;
#237 = CARTESIAN_POINT ( 'NONE',  ( 0.000000000000000000, 0.000000000000000000, 402.0000000000000000 ) ) ;
#238 = LOCAL_TIME ( 12, 32, 32.00000000000000000, #23 ) ;
#239 = DIRECTION ( 'NONE',  ( 1.000000000000000000, 0.000000000000000000, 0.000000000000000000 ) ) ;
#240 = DIRECTION ( 'NONE',  ( 0.000000000000000000, 0.000000000000000000, 1.000000000000000000 ) ) ;
#241 = CC_DESIGN_DATE_AND_TIME_ASSIGNMENT ( #226, #273, ( #137 ) ) ;
#242 = DIRECTION ( 'NONE',  ( 1.000000000000000000, 0.000000000000000000, 0.000000000000000000 ) ) ;
#243 = AXIS2_PLACEMENT_3D ( 'NONE', #74, #189, #28 ) ;
#244 = VERTEX_POINT ( 'NONE', #260 ) ;
#245 = ORIENTED_EDGE ( 'NONE', *, *, #279, .T. ) ;
#246 = AXIS2_PLACEMENT_3D ( 'NONE', #199, #227, #140 ) ;
#247 = EDGE_LOOP ( 'NONE', ( #209, #245, #101, #218 ) ) ;
#248 = DIRECTION ( 'NONE',  ( 1.000000000000000000, 0.000000000000000000, 0.000000000000000000 ) ) ;
#249 = PLANE ( 'NONE',  #29 ) ;
#250 = VECTOR ( 'NONE', #162, 1000.000000000000000 ) ;
#251 = ORIENTED_EDGE ( 'NONE', *, *, #52, .T. ) ;
#252 = UNCERTAINTY_MEASURE_WITH_UNIT (LENGTH_MEASURE( 1.000000000000000082E-05 ), #100, 'distance_accuracy_value', 'NONE');
#253 = APPROVAL_STATUS ( 'not_yet_approved' ) ;
#254 = DIRECTION ( 'NONE',  ( 1.000000000000000000, 0.000000000000000000, -0.000000000000000000 ) ) ;
#255 = APPROVAL ( #143, 'NEURÈENÝ' ) ;
#256 = ORIENTED_EDGE ( 'NONE', *, *, #272, .T. ) ;
#257 = DATE_TIME_ROLE ( 'classification_date' ) ;
#258 = DIRECTION ( 'NONE',  ( 0.000000000000000000, 0.000000000000000000, 1.000000000000000000 ) ) ;
#259 = CIRCLE ( 'NONE', #53, 1.450000000000000178 ) ;
#260 = CARTESIAN_POINT ( 'NONE',  ( 2.500000000000000000, 3.061616997868383141E-16, 2.000000000000000000 ) ) ;
#261 = DIRECTION ( 'NONE',  ( 1.000000000000000000, 0.000000000000000000, 0.000000000000000000 ) ) ;
#262 = DIRECTION ( 'NONE',  ( 1.000000000000000000, 0.000000000000000000, 0.000000000000000000 ) ) ;
#263 = CIRCLE ( 'NONE', #165, 1.250000000000000000 ) ;
#264 = CARTESIAN_POINT ( 'NONE',  ( 2.500000000000000000, 3.061616997868383141E-16, 2.000000000000000000 ) ) ;
#265 = EDGE_CURVE ( 'NONE', #217, #180, #160, .T. ) ;
#266 = DIRECTION ( 'NONE',  ( -0.000000000000000000, -0.000000000000000000, -1.000000000000000000 ) ) ;
#267 = ORIENTED_EDGE ( 'NONE', *, *, #223, .F. ) ;
#268 = APPROVAL_PERSON_ORGANIZATION ( #108, #75, #298 ) ;
#269 = VERTEX_POINT ( 'NONE', #168 ) ;
#270 = CLOSED_SHELL ( 'NONE', ( #122, #144, #8, #296, #84, #166, #174, #116, #196 ) ) ;
#271 = ORIENTED_EDGE ( 'NONE', *, *, #57, .F. ) ;
#272 = EDGE_CURVE ( 'NONE', #77, #180, #259, .T. ) ;
#273 = DATE_TIME_ROLE ( 'creation_date' ) ;
#274 = ORIENTED_EDGE ( 'NONE', *, *, #265, .T. ) ;
#275 = VERTEX_POINT ( 'NONE', #213 ) ;
#276 = DATE_AND_TIME ( #181, #294 ) ;
#277 = CC_DESIGN_APPROVAL ( #75, ( #137 ) ) ;
#278 = CARTESIAN_POINT ( 'NONE',  ( 1.250000000000000000, 1.530808498934191571E-16, 402.0000000000000000 ) ) ;
#279 = EDGE_CURVE ( 'NONE', #244, #275, #173, .T. ) ;
#280 = PERSON_AND_ORGANIZATION ( #138, #285 ) ;
#281 = DIRECTION ( 'NONE',  ( -0.000000000000000000, -0.000000000000000000, -1.000000000000000000 ) ) ;
#282 = DATE_AND_TIME ( #113, #238 ) ;
#283 = CARTESIAN_POINT ( 'NONE',  ( 0.000000000000000000, 0.000000000000000000, 402.0000000000000000 ) ) ;
#284 = CARTESIAN_POINT ( 'NONE',  ( 0.000000000000000000, 0.000000000000000000, 2.000000000000000000 ) ) ;
#285 = ORGANIZATION ( 'NEURÈENÝ', 'NEURÈENÝ', '' ) ;
#286 = CARTESIAN_POINT ( 'NONE',  ( 0.000000000000000000, 0.000000000000000000, 2.000000000000000000 ) ) ;
#287 = PLANE ( 'NONE',  #188 ) ;
#288 = DIRECTION ( 'NONE',  ( -0.000000000000000000, -0.000000000000000000, -1.000000000000000000 ) ) ;
#289 = AXIS2_PLACEMENT_3D ( 'NONE', #307, #114, #92 ) ;
#290 = EDGE_CURVE ( 'NONE', #178, #275, #103, .T. ) ;
#291 = FACE_OUTER_BOUND ( 'NONE', #82, .T. ) ;
#292 = EDGE_CURVE ( 'NONE', #42, #178, #117, .T. ) ;
#293 = ORIENTED_EDGE ( 'NONE', *, *, #210, .F. ) ;
#294 = LOCAL_TIME ( 12, 32, 32.00000000000000000, #202 ) ;
#295 = ORIENTED_EDGE ( 'NONE', *, *, #66, .T. ) ;
#296 = ADVANCED_FACE ( 'NONE', ( #186 ), #68, .T. ) ;
#297 = AXIS2_PLACEMENT_3D ( 'NONE', #284, #27, #167 ) ;
#298 = APPROVAL_ROLE ( '' ) ;
#299 = CYLINDRICAL_SURFACE ( 'NONE', #7, 2.500000000000000000 ) ;
#300 = ORIENTED_EDGE ( 'NONE', *, *, #279, .F. ) ;
#301 = COORDINATED_UNIVERSAL_TIME_OFFSET ( 1, 0, .AHEAD. ) ;
#302 = CARTESIAN_POINT ( 'NONE',  ( 0.000000000000000000, 0.000000000000000000, 2.199999999999979750 ) ) ;
#303 = CALENDAR_DATE ( 2022, 7, 7 ) ;
#304 = AXIS2_PLACEMENT_3D ( 'NONE', #191, #70, #261 ) ;
#305 = CARTESIAN_POINT ( 'NONE',  ( 0.000000000000000000, 0.000000000000000000, 402.0000000000000000 ) ) ;
#306 = PERSON_AND_ORGANIZATION_ROLE ( 'creator' ) ;
#307 = CARTESIAN_POINT ( 'NONE',  ( 0.000000000000000000, 0.000000000000000000, 2.199999999999979750 ) ) ;
ENDSEC;
END-ISO-10303-21;
