ISO-10303-21;
HEADER;
FILE_DESCRIPTION (( 'STEP AP203' ),
    '1' );
FILE_NAME ('7fee.STEP',
    '2023-02-12T10:55:17',
    ( '' ),
    ( '' ),
    'SwSTEP 2.0',
    'SolidWorks 2019',
    '' );
FILE_SCHEMA (( 'CONFIG_CONTROL_DESIGN' ));
ENDSEC;

DATA;
#1 = DIRECTION ( 'NONE',  ( 1.000000000000000000, 0.000000000000000000, -0.000000000000000000 ) ) ;
#2 = AXIS2_PLACEMENT_3D ( 'NONE', #90, #170, #147 ) ;
#3 = ADVANCED_BREP_SHAPE_REPRESENTATION ( '7fee', ( #19, #22 ), #208 ) ;
#4 = AXIS2_PLACEMENT_3D ( 'NONE', #194, #57, #15 ) ;
#5 = CARTESIAN_POINT ( 'NONE',  ( 0.000000000000000000, 0.000000000000000000, 200.0000000000000000 ) ) ;
#6 = ORIENTED_EDGE ( 'NONE', *, *, #8, .F. ) ;
#7 = EDGE_LOOP ( 'NONE', ( #242, #6 ) ) ;
#8 = EDGE_CURVE ( 'NONE', #223, #105, #102, .T. ) ;
#9 = CYLINDRICAL_SURFACE ( 'NONE', #197, 9.000000000000000000 ) ;
#10 = DIRECTION ( 'NONE',  ( 1.000000000000000000, 0.000000000000000000, 0.000000000000000000 ) ) ;
#11 = CARTESIAN_POINT ( 'NONE',  ( -9.000000000000000000, 0.000000000000000000, 7.000000000000000000 ) ) ;
#12 = DATE_AND_TIME ( #79, #241 ) ;
#13 = CARTESIAN_POINT ( 'NONE',  ( 0.000000000000000000, 0.000000000000000000, 7.000000000000000000 ) ) ;
#14 = PERSON_AND_ORGANIZATION ( #217, #111 ) ;
#15 = DIRECTION ( 'NONE',  ( -1.000000000000000000, 0.000000000000000000, 0.000000000000000000 ) ) ;
#16 = DIRECTION ( 'NONE',  ( 1.000000000000000000, 0.000000000000000000, 0.000000000000000000 ) ) ;
#17 = EDGE_CURVE ( 'NONE', #159, #199, #69, .T. ) ;
#18 = CARTESIAN_POINT ( 'NONE',  ( -6.250000000000000000, 0.000000000000000000, 200.0000000000000000 ) ) ;
#19 = MANIFOLD_SOLID_BREP ( 'Pøidat vysunutím3', #176 ) ;
#20 = DIRECTION ( 'NONE',  ( 1.000000000000000000, 0.000000000000000000, 0.000000000000000000 ) ) ;
#21 = AXIS2_PLACEMENT_3D ( 'NONE', #157, #29, #10 ) ;
#22 = AXIS2_PLACEMENT_3D ( 'NONE', #252, #56, #16 ) ;
#23 = CC_DESIGN_DATE_AND_TIME_ASSIGNMENT ( #72, #146, ( #246 ) ) ;
#24 = EDGE_LOOP ( 'NONE', ( #27, #141 ) ) ;
#25 = EDGE_LOOP ( 'NONE', ( #120, #84 ) ) ;
#26 = APPROVAL_STATUS ( 'not_yet_approved' ) ;
#27 = ORIENTED_EDGE ( 'NONE', *, *, #178, .F. ) ;
#28 = DIRECTION ( 'NONE',  ( 1.000000000000000000, 0.000000000000000000, 0.000000000000000000 ) ) ;
#29 = DIRECTION ( 'NONE',  ( 0.000000000000000000, 0.000000000000000000, 1.000000000000000000 ) ) ;
#30 = APPROVAL_STATUS ( 'not_yet_approved' ) ;
#31 = CYLINDRICAL_SURFACE ( 'NONE', #96, 9.000000000000000000 ) ;
#32 = DIRECTION ( 'NONE',  ( 1.000000000000000000, 0.000000000000000000, 0.000000000000000000 ) ) ;
#33 = APPLICATION_PROTOCOL_DEFINITION ( 'international standard', 'config_control_design', 1994, #213 ) ;
#34 = CC_DESIGN_APPROVAL ( #119, ( #38 ) ) ;
#35 = EDGE_CURVE ( 'NONE', #60, #46, #226, .T. ) ;
#36 = CARTESIAN_POINT ( 'NONE',  ( -6.250000000000000000, 0.000000000000000000, 200.0000000000000000 ) ) ;
#37 = FACE_OUTER_BOUND ( 'NONE', #181, .T. ) ;
#38 = PRODUCT_DEFINITION ( 'NEZNÁMÝ', '', #104, #182 ) ;
#39 = CIRCLE ( 'NONE', #203, 9.000000000000000000 ) ;
#40 = CARTESIAN_POINT ( 'NONE',  ( 0.000000000000000000, 0.000000000000000000, 7.000000000000000000 ) ) ;
#41 = ORIENTED_EDGE ( 'NONE', *, *, #17, .F. ) ;
#42 = PERSON_AND_ORGANIZATION ( #217, #111 ) ;
#43 = UNCERTAINTY_MEASURE_WITH_UNIT (LENGTH_MEASURE( 1.000000000000000082E-05 ), #207, 'distance_accuracy_value', 'NONE');
#44 = ORIENTED_EDGE ( 'NONE', *, *, #253, .F. ) ;
#45 = PERSON_AND_ORGANIZATION ( #217, #111 ) ;
#46 = VERTEX_POINT ( 'NONE', #189 ) ;
#47 = EDGE_CURVE ( 'NONE', #58, #46, #187, .T. ) ;
#48 = PERSON_AND_ORGANIZATION_ROLE ( 'classification_officer' ) ;
#49 = PLANE ( 'NONE',  #2 ) ;
#50 = FACE_OUTER_BOUND ( 'NONE', #87, .T. ) ;
#51 = CC_DESIGN_DATE_AND_TIME_ASSIGNMENT ( #12, #169, ( #38 ) ) ;
#52 = CARTESIAN_POINT ( 'NONE',  ( -9.000000000000000000, 0.000000000000000000, 7.000000000000000000 ) ) ;
#53 = APPROVAL_DATE_TIME ( #134, #119 ) ;
#54 = EDGE_CURVE ( 'NONE', #58, #237, #39, .T. ) ;
#55 = VECTOR ( 'NONE', #116, 1000.000000000000000 ) ;
#56 = DIRECTION ( 'NONE',  ( 0.000000000000000000, 0.000000000000000000, 1.000000000000000000 ) ) ;
#57 = DIRECTION ( 'NONE',  ( -0.000000000000000000, -0.000000000000000000, -1.000000000000000000 ) ) ;
#58 = VERTEX_POINT ( 'NONE', #11 ) ;
#59 = CIRCLE ( 'NONE', #198, 6.250000000000000000 ) ;
#60 = VERTEX_POINT ( 'NONE', #168 ) ;
#61 = CC_DESIGN_PERSON_AND_ORGANIZATION_ASSIGNMENT ( #234, #180, ( #104 ) ) ;
#62 = APPLICATION_CONTEXT ( 'configuration controlled 3d designs of mechanical parts and assemblies' ) ;
#63 = VECTOR ( 'NONE', #130, 1000.000000000000000 ) ;
#64 = ORIENTED_EDGE ( 'NONE', *, *, #142, .F. ) ;
#65 = ADVANCED_FACE ( 'NONE', ( #50 ), #9, .T. ) ;
#66 = ORIENTED_EDGE ( 'NONE', *, *, #206, .F. ) ;
#67 = APPROVAL_DATE_TIME ( #188, #239 ) ;
#68 = ORIENTED_EDGE ( 'NONE', *, *, #54, .F. ) ;
#69 = CIRCLE ( 'NONE', #156, 6.250000000000000000 ) ;
#70 = CARTESIAN_POINT ( 'NONE',  ( 0.000000000000000000, 0.000000000000000000, 0.000000000000000000 ) ) ;
#71 = AXIS2_PLACEMENT_3D ( 'NONE', #70, #144, #28 ) ;
#72 = DATE_AND_TIME ( #204, #149 ) ;
#73 = EDGE_CURVE ( 'NONE', #237, #58, #224, .T. ) ;
#74 = PERSON_AND_ORGANIZATION ( #217, #111 ) ;
#75 = CC_DESIGN_APPROVAL ( #239, ( #246 ) ) ;
#76 = CARTESIAN_POINT ( 'NONE',  ( 6.250000000000000000, 7.654042494670957606E-16, 200.0000000000000000 ) ) ;
#77 = DIRECTION ( 'NONE',  ( 0.000000000000000000, 0.000000000000000000, 1.000000000000000000 ) ) ;
#78 = VECTOR ( 'NONE', #251, 1000.000000000000000 ) ;
#79 = CALENDAR_DATE ( 2023, 12, 2 ) ;
#80 = CARTESIAN_POINT ( 'NONE',  ( 6.250000000000000000, 7.654042494670957606E-16, 7.000000000000000000 ) ) ;
#81 = PERSON_AND_ORGANIZATION_ROLE ( 'design_owner' ) ;
#82 = ADVANCED_FACE ( 'NONE', ( #110 ), #49, .T. ) ;
#83 = DIRECTION ( 'NONE',  ( 1.000000000000000000, 0.000000000000000000, 0.000000000000000000 ) ) ;
#84 = ORIENTED_EDGE ( 'NONE', *, *, #17, .T. ) ;
#85 = PERSON_AND_ORGANIZATION ( #217, #111 ) ;
#86 = CALENDAR_DATE ( 2023, 12, 2 ) ;
#87 = EDGE_LOOP ( 'NONE', ( #215, #161, #139, #210 ) ) ;
#88 = DIRECTION ( 'NONE',  ( 1.000000000000000000, 0.000000000000000000, -0.000000000000000000 ) ) ;
#89 = AXIS2_PLACEMENT_3D ( 'NONE', #205, #249, #88 ) ;
#90 = CARTESIAN_POINT ( 'NONE',  ( 0.000000000000000000, 0.000000000000000000, 200.0000000000000000 ) ) ;
#91 = LOCAL_TIME ( 11, 55, 17.00000000000000000, #232 ) ;
#92 = CARTESIAN_POINT ( 'NONE',  ( 0.000000000000000000, 0.000000000000000000, 200.0000000000000000 ) ) ;
#93 = DIRECTION ( 'NONE',  ( 1.000000000000000000, 0.000000000000000000, 0.000000000000000000 ) ) ;
#94 = CC_DESIGN_PERSON_AND_ORGANIZATION_ASSIGNMENT ( #45, #81, ( #220 ) ) ;
#95 = DIRECTION ( 'NONE',  ( 0.000000000000000000, 0.000000000000000000, 1.000000000000000000 ) ) ;
#96 = AXIS2_PLACEMENT_3D ( 'NONE', #200, #183, #227 ) ;
#97 = CARTESIAN_POINT ( 'NONE',  ( 0.000000000000000000, 0.000000000000000000, 200.0000000000000000 ) ) ;
#98 = APPROVAL_ROLE ( '' ) ;
#99 = CALENDAR_DATE ( 2023, 12, 2 ) ;
#100 = APPROVAL_PERSON_ORGANIZATION ( #42, #119, #98 ) ;
#101 = CARTESIAN_POINT ( 'NONE',  ( 0.000000000000000000, 0.000000000000000000, 7.000000000000000000 ) ) ;
#102 = CIRCLE ( 'NONE', #123, 6.250000000000000000 ) ;
#103 = ORIENTED_EDGE ( 'NONE', *, *, #47, .T. ) ;
#104 = PRODUCT_DEFINITION_FORMATION_WITH_SPECIFIED_SOURCE ( 'LIBOVOLNÝ', '', #220, .NOT_KNOWN. ) ;
#105 = VERTEX_POINT ( 'NONE', #190 ) ;
#106 = ORIENTED_EDGE ( 'NONE', *, *, #178, .T. ) ;
#107 = ORIENTED_EDGE ( 'NONE', *, *, #132, .T. ) ;
#108 = FACE_OUTER_BOUND ( 'NONE', #158, .T. ) ;
#109 = FACE_OUTER_BOUND ( 'NONE', #163, .T. ) ;
#110 = FACE_OUTER_BOUND ( 'NONE', #25, .T. ) ;
#111 = ORGANIZATION ( 'NEURÈENÝ', 'NEURÈENÝ', '' ) ;
#112 = COORDINATED_UNIVERSAL_TIME_OFFSET ( 1, 0, .AHEAD. ) ;
#113 = DIRECTION ( 'NONE',  ( 0.000000000000000000, 0.000000000000000000, 1.000000000000000000 ) ) ;
#114 = CARTESIAN_POINT ( 'NONE',  ( 0.000000000000000000, 0.000000000000000000, 7.000000000000000000 ) ) ;
#115 = AXIS2_PLACEMENT_3D ( 'NONE', #114, #113, #93 ) ;
#116 = DIRECTION ( 'NONE',  ( -0.000000000000000000, -0.000000000000000000, -1.000000000000000000 ) ) ;
#117 = CALENDAR_DATE ( 2023, 12, 2 ) ;
#118 =( NAMED_UNIT ( * ) PLANE_ANGLE_UNIT ( ) SI_UNIT ( $, .RADIAN. ) );
#119 = APPROVAL ( #26, 'NEURÈENÝ' ) ;
#120 = ORIENTED_EDGE ( 'NONE', *, *, #162, .T. ) ;
#121 = CC_DESIGN_PERSON_AND_ORGANIZATION_ASSIGNMENT ( #165, #48, ( #246 ) ) ;
#122 = ORIENTED_EDGE ( 'NONE', *, *, #8, .T. ) ;
#123 = AXIS2_PLACEMENT_3D ( 'NONE', #40, #195, #20 ) ;
#124 = APPROVAL_PERSON_ORGANIZATION ( #14, #153, #228 ) ;
#125 = ADVANCED_FACE ( 'NONE', ( #166 ), #247, .F. ) ;
#126 = CARTESIAN_POINT ( 'NONE',  ( 0.000000000000000000, 0.000000000000000000, 7.000000000000000000 ) ) ;
#127 = DIRECTION ( 'NONE',  ( -1.000000000000000000, 0.000000000000000000, 0.000000000000000000 ) ) ;
#128 = CC_DESIGN_PERSON_AND_ORGANIZATION_ASSIGNMENT ( #85, #216, ( #104 ) ) ;
#129 = DIRECTION ( 'NONE',  ( 1.000000000000000000, 0.000000000000000000, 0.000000000000000000 ) ) ;
#130 = DIRECTION ( 'NONE',  ( -0.000000000000000000, -0.000000000000000000, -1.000000000000000000 ) ) ;
#131 = LINE ( 'NONE', #36, #55 ) ;
#132 = EDGE_CURVE ( 'NONE', #105, #223, #231, .T. ) ;
#133 = DIRECTION ( 'NONE',  ( -0.000000000000000000, -0.000000000000000000, -1.000000000000000000 ) ) ;
#134 = DATE_AND_TIME ( #117, #155 ) ;
#135 =( NAMED_UNIT ( * ) SI_UNIT ( $, .STERADIAN. ) SOLID_ANGLE_UNIT ( ) );
#136 = MECHANICAL_CONTEXT ( 'NONE', #213, 'mechanical' ) ;
#137 = EDGE_LOOP ( 'NONE', ( #243, #177 ) ) ;
#138 = APPROVAL_PERSON_ORGANIZATION ( #74, #239, #229 ) ;
#139 = ORIENTED_EDGE ( 'NONE', *, *, #35, .T. ) ;
#140 = SHAPE_DEFINITION_REPRESENTATION ( #179, #3 ) ;
#141 = ORIENTED_EDGE ( 'NONE', *, *, #35, .F. ) ;
#142 = EDGE_CURVE ( 'NONE', #159, #223, #202, .T. ) ;
#143 = AXIS2_PLACEMENT_3D ( 'NONE', #101, #77, #1 ) ;
#144 = DIRECTION ( 'NONE',  ( 0.000000000000000000, 0.000000000000000000, 1.000000000000000000 ) ) ;
#145 = APPROVAL_STATUS ( 'not_yet_approved' ) ;
#146 = DATE_TIME_ROLE ( 'classification_date' ) ;
#147 = DIRECTION ( 'NONE',  ( 1.000000000000000000, 0.000000000000000000, -0.000000000000000000 ) ) ;
#148 = PRODUCT_RELATED_PRODUCT_CATEGORY ( 'detail', '', ( #220 ) ) ;
#149 = LOCAL_TIME ( 11, 55, 17.00000000000000000, #248 ) ;
#150 = CARTESIAN_POINT ( 'NONE',  ( 9.000000000000000000, 1.102182119232617714E-15, 7.000000000000000000 ) ) ;
#151 = COORDINATED_UNIVERSAL_TIME_OFFSET ( 1, 0, .AHEAD. ) ;
#152 = CYLINDRICAL_SURFACE ( 'NONE', #235, 6.250000000000000000 ) ;
#153 = APPROVAL ( #145, 'NEURÈENÝ' ) ;
#154 = CARTESIAN_POINT ( 'NONE',  ( 9.000000000000000000, 1.102182119232617714E-15, 7.000000000000000000 ) ) ;
#155 = LOCAL_TIME ( 11, 55, 17.00000000000000000, #151 ) ;
#156 = AXIS2_PLACEMENT_3D ( 'NONE', #5, #238, #83 ) ;
#157 = CARTESIAN_POINT ( 'NONE',  ( 0.000000000000000000, 0.000000000000000000, 0.000000000000000000 ) ) ;
#158 = EDGE_LOOP ( 'NONE', ( #44, #68, #103, #106 ) ) ;
#159 = VERTEX_POINT ( 'NONE', #76 ) ;
#160 = SECURITY_CLASSIFICATION_LEVEL ( 'unclassified' ) ;
#161 = ORIENTED_EDGE ( 'NONE', *, *, #253, .T. ) ;
#162 = EDGE_CURVE ( 'NONE', #199, #159, #59, .T. ) ;
#163 = EDGE_LOOP ( 'NONE', ( #41, #240, #122, #66 ) ) ;
#164 = DIRECTION ( 'NONE',  ( 1.000000000000000000, 0.000000000000000000, 0.000000000000000000 ) ) ;
#165 = PERSON_AND_ORGANIZATION ( #217, #111 ) ;
#166 = FACE_OUTER_BOUND ( 'NONE', #24, .T. ) ;
#167 = ADVANCED_FACE ( 'NONE', ( #108 ), #31, .T. ) ;
#168 = CARTESIAN_POINT ( 'NONE',  ( 9.000000000000000000, 1.102182119232617714E-15, 0.000000000000000000 ) ) ;
#169 = DATE_TIME_ROLE ( 'creation_date' ) ;
#170 = DIRECTION ( 'NONE',  ( 0.000000000000000000, 0.000000000000000000, 1.000000000000000000 ) ) ;
#171 = CYLINDRICAL_SURFACE ( 'NONE', #4, 6.250000000000000000 ) ;
#172 = FACE_OUTER_BOUND ( 'NONE', #137, .T. ) ;
#173 = LINE ( 'NONE', #150, #175 ) ;
#174 = APPROVAL_DATE_TIME ( #209, #153 ) ;
#175 = VECTOR ( 'NONE', #133, 1000.000000000000000 ) ;
#176 = CLOSED_SHELL ( 'NONE', ( #196, #65, #167, #236, #125, #245, #82 ) ) ;
#177 = ORIENTED_EDGE ( 'NONE', *, *, #73, .T. ) ;
#178 = EDGE_CURVE ( 'NONE', #46, #60, #254, .T. ) ;
#179 = PRODUCT_DEFINITION_SHAPE ( 'NONE', 'NONE',  #38 ) ;
#180 = PERSON_AND_ORGANIZATION_ROLE ( 'creator' ) ;
#181 = EDGE_LOOP ( 'NONE', ( #64, #221, #218, #107 ) ) ;
#182 = DESIGN_CONTEXT ( 'detailed design', #62, 'design' ) ;
#183 = DIRECTION ( 'NONE',  ( -0.000000000000000000, -0.000000000000000000, -1.000000000000000000 ) ) ;
#184 = DIRECTION ( 'NONE',  ( 0.000000000000000000, 0.000000000000000000, 1.000000000000000000 ) ) ;
#185 = AXIS2_PLACEMENT_3D ( 'NONE', #13, #95, #164 ) ;
#186 = CC_DESIGN_APPROVAL ( #153, ( #104 ) ) ;
#187 = LINE ( 'NONE', #52, #63 ) ;
#188 = DATE_AND_TIME ( #86, #230 ) ;
#189 = CARTESIAN_POINT ( 'NONE',  ( -9.000000000000000000, 0.000000000000000000, 0.000000000000000000 ) ) ;
#190 = CARTESIAN_POINT ( 'NONE',  ( -6.250000000000000000, 0.000000000000000000, 7.000000000000000000 ) ) ;
#191 = CC_DESIGN_PERSON_AND_ORGANIZATION_ASSIGNMENT ( #214, #192, ( #38 ) ) ;
#192 = PERSON_AND_ORGANIZATION_ROLE ( 'creator' ) ;
#193 = PLANE ( 'NONE',  #143 ) ;
#194 = CARTESIAN_POINT ( 'NONE',  ( 0.000000000000000000, 0.000000000000000000, 200.0000000000000000 ) ) ;
#195 = DIRECTION ( 'NONE',  ( 0.000000000000000000, 0.000000000000000000, 1.000000000000000000 ) ) ;
#196 = ADVANCED_FACE ( 'NONE', ( #109 ), #171, .T. ) ;
#197 = AXIS2_PLACEMENT_3D ( 'NONE', #126, #250, #127 ) ;
#198 = AXIS2_PLACEMENT_3D ( 'NONE', #92, #225, #129 ) ;
#199 = VERTEX_POINT ( 'NONE', #18 ) ;
#200 = CARTESIAN_POINT ( 'NONE',  ( 0.000000000000000000, 0.000000000000000000, 7.000000000000000000 ) ) ;
#201 = CARTESIAN_POINT ( 'NONE',  ( 6.250000000000000000, 7.654042494670957606E-16, 200.0000000000000000 ) ) ;
#202 = LINE ( 'NONE', #201, #78 ) ;
#203 = AXIS2_PLACEMENT_3D ( 'NONE', #244, #184, #32 ) ;
#204 = CALENDAR_DATE ( 2023, 12, 2 ) ;
#205 = CARTESIAN_POINT ( 'NONE',  ( 0.000000000000000000, 0.000000000000000000, 0.000000000000000000 ) ) ;
#206 = EDGE_CURVE ( 'NONE', #199, #105, #131, .T. ) ;
#207 =( LENGTH_UNIT ( ) NAMED_UNIT ( * ) SI_UNIT ( .MILLI., .METRE. ) );
#208 =( GEOMETRIC_REPRESENTATION_CONTEXT ( 3 ) GLOBAL_UNCERTAINTY_ASSIGNED_CONTEXT ( ( #43 ) ) GLOBAL_UNIT_ASSIGNED_CONTEXT ( ( #207, #118, #135 ) ) REPRESENTATION_CONTEXT ( 'NONE', 'WORKASPACE' ) );
#209 = DATE_AND_TIME ( #99, #91 ) ;
#210 = ORIENTED_EDGE ( 'NONE', *, *, #47, .F. ) ;
#211 = COORDINATED_UNIVERSAL_TIME_OFFSET ( 1, 0, .AHEAD. ) ;
#212 = DIRECTION ( 'NONE',  ( -0.000000000000000000, -0.000000000000000000, -1.000000000000000000 ) ) ;
#213 = APPLICATION_CONTEXT ( 'configuration controlled 3d designs of mechanical parts and assemblies' ) ;
#214 = PERSON_AND_ORGANIZATION ( #217, #111 ) ;
#215 = ORIENTED_EDGE ( 'NONE', *, *, #73, .F. ) ;
#216 = PERSON_AND_ORGANIZATION_ROLE ( 'design_supplier' ) ;
#217 = PERSON ( 'NEURÈENÝ', 'NEURÈENÝ', 'NEURÈENÝ', ('NEURÈENÝ'), ('NEURÈENÝ'), ('NEURÈENÝ') ) ;
#218 = ORIENTED_EDGE ( 'NONE', *, *, #206, .T. ) ;
#219 = CC_DESIGN_SECURITY_CLASSIFICATION ( #246, ( #104 ) ) ;
#220 = PRODUCT ( '7fee', '7fee', '', ( #136 ) ) ;
#221 = ORIENTED_EDGE ( 'NONE', *, *, #162, .F. ) ;
#222 = APPLICATION_PROTOCOL_DEFINITION ( 'international standard', 'config_control_design', 1994, #62 ) ;
#223 = VERTEX_POINT ( 'NONE', #80 ) ;
#224 = CIRCLE ( 'NONE', #115, 9.000000000000000000 ) ;
#225 = DIRECTION ( 'NONE',  ( 0.000000000000000000, 0.000000000000000000, 1.000000000000000000 ) ) ;
#226 = CIRCLE ( 'NONE', #21, 9.000000000000000000 ) ;
#227 = DIRECTION ( 'NONE',  ( -1.000000000000000000, 0.000000000000000000, 0.000000000000000000 ) ) ;
#228 = APPROVAL_ROLE ( '' ) ;
#229 = APPROVAL_ROLE ( '' ) ;
#230 = LOCAL_TIME ( 11, 55, 17.00000000000000000, #112 ) ;
#231 = CIRCLE ( 'NONE', #185, 6.250000000000000000 ) ;
#232 = COORDINATED_UNIVERSAL_TIME_OFFSET ( 1, 0, .AHEAD. ) ;
#233 = FACE_BOUND ( 'NONE', #7, .T. ) ;
#234 = PERSON_AND_ORGANIZATION ( #217, #111 ) ;
#235 = AXIS2_PLACEMENT_3D ( 'NONE', #97, #212, #255 ) ;
#236 = ADVANCED_FACE ( 'NONE', ( #233, #172 ), #193, .T. ) ;
#237 = VERTEX_POINT ( 'NONE', #154 ) ;
#238 = DIRECTION ( 'NONE',  ( 0.000000000000000000, 0.000000000000000000, 1.000000000000000000 ) ) ;
#239 = APPROVAL ( #30, 'NEURÈENÝ' ) ;
#240 = ORIENTED_EDGE ( 'NONE', *, *, #142, .T. ) ;
#241 = LOCAL_TIME ( 11, 55, 17.00000000000000000, #211 ) ;
#242 = ORIENTED_EDGE ( 'NONE', *, *, #132, .F. ) ;
#243 = ORIENTED_EDGE ( 'NONE', *, *, #54, .T. ) ;
#244 = CARTESIAN_POINT ( 'NONE',  ( 0.000000000000000000, 0.000000000000000000, 7.000000000000000000 ) ) ;
#245 = ADVANCED_FACE ( 'NONE', ( #37 ), #152, .T. ) ;
#246 = SECURITY_CLASSIFICATION ( '', '', #160 ) ;
#247 = PLANE ( 'NONE',  #89 ) ;
#248 = COORDINATED_UNIVERSAL_TIME_OFFSET ( 1, 0, .AHEAD. ) ;
#249 = DIRECTION ( 'NONE',  ( 0.000000000000000000, 0.000000000000000000, 1.000000000000000000 ) ) ;
#250 = DIRECTION ( 'NONE',  ( -0.000000000000000000, -0.000000000000000000, -1.000000000000000000 ) ) ;
#251 = DIRECTION ( 'NONE',  ( -0.000000000000000000, -0.000000000000000000, -1.000000000000000000 ) ) ;
#252 = CARTESIAN_POINT ( 'NONE',  ( 0.000000000000000000, 0.000000000000000000, 0.000000000000000000 ) ) ;
#253 = EDGE_CURVE ( 'NONE', #237, #60, #173, .T. ) ;
#254 = CIRCLE ( 'NONE', #71, 9.000000000000000000 ) ;
#255 = DIRECTION ( 'NONE',  ( -1.000000000000000000, 0.000000000000000000, 0.000000000000000000 ) ) ;
ENDSEC;
END-ISO-10303-21;
