ISO-10303-21;
HEADER;
FILE_DESCRIPTION (( 'STEP AP203' ),
    '1' );
FILE_NAME ('8ebd.STEP',
    '2022-07-07T10:36:00',
    ( '' ),
    ( '' ),
    'SwSTEP 2.0',
    'SolidWorks 2019',
    '' );
FILE_SCHEMA (( 'CONFIG_CONTROL_DESIGN' ));
ENDSEC;

DATA;
#1 = DIRECTION ( 'NONE',  ( -0.000000000000000000, -0.000000000000000000, -1.000000000000000000 ) ) ;
#2 = CIRCLE ( 'NONE', #255, 1.000000000000000000 ) ;
#3 = CC_DESIGN_DATE_AND_TIME_ASSIGNMENT ( #23, #89, ( #265 ) ) ;
#4 = LINE ( 'NONE', #54, #190 ) ;
#5 = VECTOR ( 'NONE', #245, 1000.000000000000000 ) ;
#6 = DIRECTION ( 'NONE',  ( 1.000000000000000000, 0.000000000000000000, 0.000000000000000000 ) ) ;
#7 = CC_DESIGN_APPROVAL ( #172, ( #144 ) ) ;
#8 = CARTESIAN_POINT ( 'NONE',  ( 0.000000000000000000, 0.000000000000000000, 162.0000000000000000 ) ) ;
#9 = DIRECTION ( 'NONE',  ( 1.000000000000000000, 0.000000000000000000, 0.000000000000000000 ) ) ;
#10 = VECTOR ( 'NONE', #263, 1000.000000000000000 ) ;
#11 = PERSON ( 'NEURÈENÝ', 'NEURÈENÝ', 'NEURÈENÝ', ('NEURÈENÝ'), ('NEURÈENÝ'), ('NEURÈENÝ') ) ;
#12 = EDGE_LOOP ( 'NONE', ( #158, #249 ) ) ;
#13 = ORIENTED_EDGE ( 'NONE', *, *, #229, .F. ) ;
#14 = ADVANCED_BREP_SHAPE_REPRESENTATION ( '8ebd', ( #76, #34 ), #84 ) ;
#15 = ORIENTED_EDGE ( 'NONE', *, *, #65, .F. ) ;
#16 = ADVANCED_FACE ( 'NONE', ( #71 ), #29, .T. ) ;
#17 = APPROVAL_DATE_TIME ( #61, #97 ) ;
#18 = AXIS2_PLACEMENT_3D ( 'NONE', #119, #77, #214 ) ;
#19 = ORIENTED_EDGE ( 'NONE', *, *, #149, .F. ) ;
#20 = AXIS2_PLACEMENT_3D ( 'NONE', #8, #196, #286 ) ;
#21 = PERSON_AND_ORGANIZATION ( #11, #161 ) ;
#22 = CARTESIAN_POINT ( 'NONE',  ( 0.000000000000000000, 0.000000000000000000, 2.000000000000000000 ) ) ;
#23 = DATE_AND_TIME ( #137, #188 ) ;
#24 = CARTESIAN_POINT ( 'NONE',  ( 0.000000000000000000, 0.000000000000000000, 0.000000000000000000 ) ) ;
#25 = DIRECTION ( 'NONE',  ( 0.000000000000000000, 0.000000000000000000, 1.000000000000000000 ) ) ;
#26 = DIRECTION ( 'NONE',  ( -0.000000000000000000, -0.000000000000000000, -1.000000000000000000 ) ) ;
#27 = PRODUCT_DEFINITION_SHAPE ( 'NONE', 'NONE',  #265 ) ;
#28 = APPROVAL_ROLE ( '' ) ;
#29 = CYLINDRICAL_SURFACE ( 'NONE', #94, 2.000000000000000000 ) ;
#30 = CC_DESIGN_PERSON_AND_ORGANIZATION_ASSIGNMENT ( #135, #230, ( #265 ) ) ;
#31 = FACE_BOUND ( 'NONE', #138, .T. ) ;
#32 = AXIS2_PLACEMENT_3D ( 'NONE', #209, #163, #45 ) ;
#33 = LINE ( 'NONE', #53, #295 ) ;
#34 = AXIS2_PLACEMENT_3D ( 'NONE', #226, #44, #116 ) ;
#35 = CARTESIAN_POINT ( 'NONE',  ( 0.000000000000000000, 0.000000000000000000, 162.0000000000000000 ) ) ;
#36 = APPROVAL_PERSON_ORGANIZATION ( #186, #185, #111 ) ;
#37 = CARTESIAN_POINT ( 'NONE',  ( 0.000000000000000000, 0.000000000000000000, 162.0000000000000000 ) ) ;
#38 = CIRCLE ( 'NONE', #18, 2.000000000000000000 ) ;
#39 = APPROVAL_PERSON_ORGANIZATION ( #183, #97, #210 ) ;
#40 = EDGE_CURVE ( 'NONE', #301, #199, #2, .T. ) ;
#41 = DATE_AND_TIME ( #141, #69 ) ;
#42 = DIRECTION ( 'NONE',  ( 1.224646799147353207E-16, 1.000000000000000000, -0.000000000000000000 ) ) ;
#43 = TOROIDAL_SURFACE ( 'NONE', #80, 1.200000000000000178, 0.2000000000000000111 ) ;
#44 = DIRECTION ( 'NONE',  ( 0.000000000000000000, 0.000000000000000000, 1.000000000000000000 ) ) ;
#45 = DIRECTION ( 'NONE',  ( 1.000000000000000000, 0.000000000000000000, 0.000000000000000000 ) ) ;
#46 = EDGE_CURVE ( 'NONE', #199, #301, #198, .T. ) ;
#47 = ORIENTED_EDGE ( 'NONE', *, *, #191, .F. ) ;
#48 = DIRECTION ( 'NONE',  ( 1.000000000000000000, 0.000000000000000000, 0.000000000000000000 ) ) ;
#49 = APPROVAL_STATUS ( 'not_yet_approved' ) ;
#50 = DIRECTION ( 'NONE',  ( 1.000000000000000000, 0.000000000000000000, 0.000000000000000000 ) ) ;
#51 = CARTESIAN_POINT ( 'NONE',  ( 2.000000000000000000, 2.449293598294706414E-16, 0.000000000000000000 ) ) ;
#52 = FACE_OUTER_BOUND ( 'NONE', #62, .T. ) ;
#53 = CARTESIAN_POINT ( 'NONE',  ( 2.000000000000000000, 2.449293598294706414E-16, 2.000000000000000000 ) ) ;
#54 = CARTESIAN_POINT ( 'NONE',  ( 1.000000000000000000, 1.224646799147353207E-16, 162.0000000000000000 ) ) ;
#55 = AXIS2_PLACEMENT_3D ( 'NONE', #256, #182, #90 ) ;
#56 = AXIS2_PLACEMENT_3D ( 'NONE', #99, #283, #167 ) ;
#57 = CC_DESIGN_PERSON_AND_ORGANIZATION_ASSIGNMENT ( #252, #113, ( #299 ) ) ;
#58 = TOROIDAL_SURFACE ( 'NONE', #237, 1.200000000000000178, 0.2000000000000000111 ) ;
#59 = EDGE_LOOP ( 'NONE', ( #19, #225, #181, #154 ) ) ;
#60 = APPROVAL_DATE_TIME ( #41, #172 ) ;
#61 = DATE_AND_TIME ( #275, #232 ) ;
#62 = EDGE_LOOP ( 'NONE', ( #47, #110, #274, #297 ) ) ;
#63 = AXIS2_PLACEMENT_3D ( 'NONE', #239, #114, #206 ) ;
#64 = CARTESIAN_POINT ( 'NONE',  ( 0.000000000000000000, 0.000000000000000000, 2.200000000000007283 ) ) ;
#65 = EDGE_CURVE ( 'NONE', #199, #127, #159, .T. ) ;
#66 = CARTESIAN_POINT ( 'NONE',  ( 0.000000000000000000, 0.000000000000000000, 2.200000000000007283 ) ) ;
#67 = SECURITY_CLASSIFICATION_LEVEL ( 'unclassified' ) ;
#68 = CARTESIAN_POINT ( 'NONE',  ( -1.000000000000000000, 0.000000000000000000, 162.0000000000000000 ) ) ;
#69 = LOCAL_TIME ( 12, 36, 0.000000000000000000, #261 ) ;
#70 = COORDINATED_UNIVERSAL_TIME_OFFSET ( 1, 0, .AHEAD. ) ;
#71 = FACE_OUTER_BOUND ( 'NONE', #59, .T. ) ;
#72 = CARTESIAN_POINT ( 'NONE',  ( 0.000000000000000000, 0.000000000000000000, 162.0000000000000000 ) ) ;
#73 = DIRECTION ( 'NONE',  ( 0.000000000000000000, 0.000000000000000000, 1.000000000000000000 ) ) ;
#74 = CYLINDRICAL_SURFACE ( 'NONE', #20, 1.000000000000000000 ) ;
#75 = CC_DESIGN_DATE_AND_TIME_ASSIGNMENT ( #300, #165, ( #144 ) ) ;
#76 = MANIFOLD_SOLID_BREP ( 'Zaoblit1', #246 ) ;
#77 = DIRECTION ( 'NONE',  ( 0.000000000000000000, 0.000000000000000000, 1.000000000000000000 ) ) ;
#78 = PLANE ( 'NONE',  #227 ) ;
#79 = EDGE_CURVE ( 'NONE', #258, #203, #107, .T. ) ;
#80 = AXIS2_PLACEMENT_3D ( 'NONE', #66, #123, #244 ) ;
#81 = ORIENTED_EDGE ( 'NONE', *, *, #40, .F. ) ;
#82 = EDGE_LOOP ( 'NONE', ( #157, #201, #231, #88 ) ) ;
#83 = EDGE_LOOP ( 'NONE', ( #211, #178, #223, #251 ) ) ;
#84 =( GEOMETRIC_REPRESENTATION_CONTEXT ( 3 ) GLOBAL_UNCERTAINTY_ASSIGNED_CONTEXT ( ( #150 ) ) GLOBAL_UNIT_ASSIGNED_CONTEXT ( ( #176, #126, #248 ) ) REPRESENTATION_CONTEXT ( 'NONE', 'WORKASPACE' ) );
#85 = CALENDAR_DATE ( 2022, 7, 7 ) ;
#86 = DIRECTION ( 'NONE',  ( -1.000000000000000000, 1.224646799147351975E-16, 0.000000000000000000 ) ) ;
#87 = DIRECTION ( 'NONE',  ( -0.000000000000000000, -0.000000000000000000, -1.000000000000000000 ) ) ;
#88 = ORIENTED_EDGE ( 'NONE', *, *, #121, .T. ) ;
#89 = DATE_TIME_ROLE ( 'creation_date' ) ;
#90 = DIRECTION ( 'NONE',  ( 1.000000000000000000, 0.000000000000000000, -0.000000000000000000 ) ) ;
#91 = EDGE_CURVE ( 'NONE', #127, #294, #281, .T. ) ;
#92 = CYLINDRICAL_SURFACE ( 'NONE', #215, 2.000000000000000000 ) ;
#93 = DIRECTION ( 'NONE',  ( -0.000000000000000000, -0.000000000000000000, -1.000000000000000000 ) ) ;
#94 = AXIS2_PLACEMENT_3D ( 'NONE', #278, #26, #260 ) ;
#95 = FACE_OUTER_BOUND ( 'NONE', #175, .T. ) ;
#96 = FACE_OUTER_BOUND ( 'NONE', #83, .T. ) ;
#97 = APPROVAL ( #273, 'NEURÈENÝ' ) ;
#98 = DIRECTION ( 'NONE',  ( 1.000000000000000000, 0.000000000000000000, -0.000000000000000000 ) ) ;
#99 = CARTESIAN_POINT ( 'NONE',  ( 0.000000000000000000, 0.000000000000000000, 162.0000000000000000 ) ) ;
#100 = ADVANCED_FACE ( 'NONE', ( #187 ), #213, .F. ) ;
#101 = APPLICATION_PROTOCOL_DEFINITION ( 'international standard', 'config_control_design', 1994, #169 ) ;
#102 = APPLICATION_CONTEXT ( 'configuration controlled 3d designs of mechanical parts and assemblies' ) ;
#103 = EDGE_LOOP ( 'NONE', ( #15, #81, #289, #136 ) ) ;
#104 = VERTEX_POINT ( 'NONE', #68 ) ;
#105 = ORIENTED_EDGE ( 'NONE', *, *, #229, .T. ) ;
#106 = COORDINATED_UNIVERSAL_TIME_OFFSET ( 1, 0, .AHEAD. ) ;
#107 = CIRCLE ( 'NONE', #152, 2.000000000000000000 ) ;
#108 = ORIENTED_EDGE ( 'NONE', *, *, #242, .F. ) ;
#109 = EDGE_CURVE ( 'NONE', #294, #127, #153, .T. ) ;
#110 = ORIENTED_EDGE ( 'NONE', *, *, #247, .F. ) ;
#111 = APPROVAL_ROLE ( '' ) ;
#112 = DIRECTION ( 'NONE',  ( 1.000000000000000000, 0.000000000000000000, 0.000000000000000000 ) ) ;
#113 = PERSON_AND_ORGANIZATION_ROLE ( 'design_owner' ) ;
#114 = DIRECTION ( 'NONE',  ( -0.000000000000000000, -0.000000000000000000, -1.000000000000000000 ) ) ;
#115 = AXIS2_PLACEMENT_3D ( 'NONE', #37, #171, #9 ) ;
#116 = DIRECTION ( 'NONE',  ( 1.000000000000000000, 0.000000000000000000, 0.000000000000000000 ) ) ;
#117 = FACE_OUTER_BOUND ( 'NONE', #82, .T. ) ;
#118 = CARTESIAN_POINT ( 'NONE',  ( 1.000000000000000000, 1.224646799147353207E-16, 162.0000000000000000 ) ) ;
#119 = CARTESIAN_POINT ( 'NONE',  ( 0.000000000000000000, 0.000000000000000000, 0.000000000000000000 ) ) ;
#120 = AXIS2_PLACEMENT_3D ( 'NONE', #160, #184, #112 ) ;
#121 = EDGE_CURVE ( 'NONE', #291, #253, #271, .T. ) ;
#122 = CARTESIAN_POINT ( 'NONE',  ( 1.200000000000000178, 0.000000000000000000, 2.000000000000003553 ) ) ;
#123 = DIRECTION ( 'NONE',  ( 0.000000000000000000, 0.000000000000000000, 1.000000000000000000 ) ) ;
#124 = CARTESIAN_POINT ( 'NONE',  ( 2.000000000000000000, 2.449293598294706414E-16, 2.000000000000000000 ) ) ;
#125 = CIRCLE ( 'NONE', #293, 2.000000000000000000 ) ;
#126 =( NAMED_UNIT ( * ) PLANE_ANGLE_UNIT ( ) SI_UNIT ( $, .RADIAN. ) );
#127 = VERTEX_POINT ( 'NONE', #228 ) ;
#128 = CC_DESIGN_PERSON_AND_ORGANIZATION_ASSIGNMENT ( #21, #305, ( #144 ) ) ;
#129 = CC_DESIGN_APPROVAL ( #97, ( #265 ) ) ;
#130 = APPLICATION_PROTOCOL_DEFINITION ( 'international standard', 'config_control_design', 1994, #102 ) ;
#131 = ADVANCED_FACE ( 'NONE', ( #117 ), #92, .T. ) ;
#132 = APPROVAL_STATUS ( 'not_yet_approved' ) ;
#133 = AXIS2_PLACEMENT_3D ( 'NONE', #24, #298, #140 ) ;
#134 = EDGE_LOOP ( 'NONE', ( #234, #262 ) ) ;
#135 = PERSON_AND_ORGANIZATION ( #11, #161 ) ;
#136 = ORIENTED_EDGE ( 'NONE', *, *, #91, .F. ) ;
#137 = CALENDAR_DATE ( 2022, 7, 7 ) ;
#138 = EDGE_LOOP ( 'NONE', ( #224, #155 ) ) ;
#139 = DATE_AND_TIME ( #279, #207 ) ;
#140 = DIRECTION ( 'NONE',  ( 1.000000000000000000, 0.000000000000000000, 0.000000000000000000 ) ) ;
#141 = CALENDAR_DATE ( 2022, 7, 7 ) ;
#142 = DIRECTION ( 'NONE',  ( 0.000000000000000000, 0.000000000000000000, 1.000000000000000000 ) ) ;
#143 = FACE_OUTER_BOUND ( 'NONE', #162, .T. ) ;
#144 = SECURITY_CLASSIFICATION ( '', '', #67 ) ;
#145 = ADVANCED_FACE ( 'NONE', ( #204 ), #43, .F. ) ;
#146 = CARTESIAN_POINT ( 'NONE',  ( 0.000000000000000000, 0.000000000000000000, 2.000000000000000000 ) ) ;
#147 = PLANE ( 'NONE',  #164 ) ;
#148 = DIRECTION ( 'NONE',  ( -0.000000000000000000, -0.000000000000000000, -1.000000000000000000 ) ) ;
#149 = EDGE_CURVE ( 'NONE', #203, #258, #125, .T. ) ;
#150 = UNCERTAINTY_MEASURE_WITH_UNIT (LENGTH_MEASURE( 1.000000000000000082E-05 ), #176, 'distance_accuracy_value', 'NONE');
#151 = CARTESIAN_POINT ( 'NONE',  ( 1.000000000000000000, 1.224646799147353207E-16, 2.200000000000007283 ) ) ;
#152 = AXIS2_PLACEMENT_3D ( 'NONE', #166, #142, #50 ) ;
#153 = CIRCLE ( 'NONE', #32, 1.200000000000000178 ) ;
#154 = ORIENTED_EDGE ( 'NONE', *, *, #269, .F. ) ;
#155 = ORIENTED_EDGE ( 'NONE', *, *, #91, .T. ) ;
#156 = CC_DESIGN_APPROVAL ( #185, ( #259 ) ) ;
#157 = ORIENTED_EDGE ( 'NONE', *, *, #292, .F. ) ;
#158 = ORIENTED_EDGE ( 'NONE', *, *, #79, .T. ) ;
#159 = CIRCLE ( 'NONE', #288, 0.2000000000000000944 ) ;
#160 = CARTESIAN_POINT ( 'NONE',  ( 0.000000000000000000, 0.000000000000000000, 2.200000000000007283 ) ) ;
#161 = ORGANIZATION ( 'NEURÈENÝ', 'NEURÈENÝ', '' ) ;
#162 = EDGE_LOOP ( 'NONE', ( #179, #105 ) ) ;
#163 = DIRECTION ( 'NONE',  ( -0.000000000000000000, -0.000000000000000000, -1.000000000000000000 ) ) ;
#164 = AXIS2_PLACEMENT_3D ( 'NONE', #146, #282, #267 ) ;
#165 = DATE_TIME_ROLE ( 'classification_date' ) ;
#166 = CARTESIAN_POINT ( 'NONE',  ( 0.000000000000000000, 0.000000000000000000, 2.000000000000000000 ) ) ;
#167 = DIRECTION ( 'NONE',  ( 1.000000000000000000, 0.000000000000000000, 0.000000000000000000 ) ) ;
#168 = ADVANCED_FACE ( 'NONE', ( #31, #192 ), #147, .T. ) ;
#169 = APPLICATION_CONTEXT ( 'configuration controlled 3d designs of mechanical parts and assemblies' ) ;
#170 = CARTESIAN_POINT ( 'NONE',  ( 1.200000000000000178, 0.000000000000000000, 2.200000000000007283 ) ) ;
#171 = DIRECTION ( 'NONE',  ( 0.000000000000000000, 0.000000000000000000, 1.000000000000000000 ) ) ;
#172 = APPROVAL ( #49, 'NEURÈENÝ' ) ;
#173 = CARTESIAN_POINT ( 'NONE',  ( -2.000000000000000000, 0.000000000000000000, 0.000000000000000000 ) ) ;
#174 = CARTESIAN_POINT ( 'NONE',  ( -2.000000000000000000, 0.000000000000000000, 2.000000000000000000 ) ) ;
#175 = EDGE_LOOP ( 'NONE', ( #13, #236, #189, #108 ) ) ;
#176 =( LENGTH_UNIT ( ) NAMED_UNIT ( * ) SI_UNIT ( .MILLI., .METRE. ) );
#177 = EDGE_CURVE ( 'NONE', #253, #291, #38, .T. ) ;
#178 = ORIENTED_EDGE ( 'NONE', *, *, #65, .T. ) ;
#179 = ORIENTED_EDGE ( 'NONE', *, *, #247, .T. ) ;
#180 = CIRCLE ( 'NONE', #216, 0.2000000000000000944 ) ;
#181 = ORIENTED_EDGE ( 'NONE', *, *, #177, .T. ) ;
#182 = DIRECTION ( 'NONE',  ( 0.000000000000000000, 0.000000000000000000, 1.000000000000000000 ) ) ;
#183 = PERSON_AND_ORGANIZATION ( #11, #161 ) ;
#184 = DIRECTION ( 'NONE',  ( 0.000000000000000000, 0.000000000000000000, 1.000000000000000000 ) ) ;
#185 = APPROVAL ( #132, 'NEURÈENÝ' ) ;
#186 = PERSON_AND_ORGANIZATION ( #11, #161 ) ;
#187 = FACE_OUTER_BOUND ( 'NONE', #134, .T. ) ;
#188 = LOCAL_TIME ( 12, 36, 0.000000000000000000, #233 ) ;
#189 = ORIENTED_EDGE ( 'NONE', *, *, #40, .T. ) ;
#190 = VECTOR ( 'NONE', #93, 1000.000000000000000 ) ;
#191 = EDGE_CURVE ( 'NONE', #304, #301, #4, .T. ) ;
#192 = FACE_OUTER_BOUND ( 'NONE', #12, .T. ) ;
#193 = DIRECTION ( 'NONE',  ( -1.000000000000000000, 0.000000000000000000, 0.000000000000000000 ) ) ;
#194 = CARTESIAN_POINT ( 'NONE',  ( -2.000000000000000000, 0.000000000000000000, 2.000000000000000000 ) ) ;
#195 = DESIGN_CONTEXT ( 'detailed design', #102, 'design' ) ;
#196 = DIRECTION ( 'NONE',  ( -0.000000000000000000, -0.000000000000000000, -1.000000000000000000 ) ) ;
#197 = ADVANCED_FACE ( 'NONE', ( #52 ), #74, .T. ) ;
#198 = CIRCLE ( 'NONE', #120, 1.000000000000000000 ) ;
#199 = VERTEX_POINT ( 'NONE', #285 ) ;
#200 = CIRCLE ( 'NONE', #115, 1.000000000000000000 ) ;
#201 = ORIENTED_EDGE ( 'NONE', *, *, #79, .F. ) ;
#202 = ADVANCED_FACE ( 'NONE', ( #96 ), #58, .F. ) ;
#203 = VERTEX_POINT ( 'NONE', #124 ) ;
#204 = FACE_OUTER_BOUND ( 'NONE', #103, .T. ) ;
#205 = SHAPE_DEFINITION_REPRESENTATION ( #27, #14 ) ;
#206 = DIRECTION ( 'NONE',  ( 1.000000000000000000, 0.000000000000000000, 0.000000000000000000 ) ) ;
#207 = LOCAL_TIME ( 12, 36, 0.000000000000000000, #106 ) ;
#208 = PERSON_AND_ORGANIZATION ( #11, #161 ) ;
#209 = CARTESIAN_POINT ( 'NONE',  ( 0.000000000000000000, 0.000000000000000000, 2.000000000000000000 ) ) ;
#210 = APPROVAL_ROLE ( '' ) ;
#211 = ORIENTED_EDGE ( 'NONE', *, *, #46, .F. ) ;
#212 = PERSON_AND_ORGANIZATION_ROLE ( 'design_supplier' ) ;
#213 = PLANE ( 'NONE',  #55 ) ;
#214 = DIRECTION ( 'NONE',  ( 1.000000000000000000, 0.000000000000000000, 0.000000000000000000 ) ) ;
#215 = AXIS2_PLACEMENT_3D ( 'NONE', #22, #87, #280 ) ;
#216 = AXIS2_PLACEMENT_3D ( 'NONE', #170, #268, #240 ) ;
#217 = LINE ( 'NONE', #174, #5 ) ;
#218 = DIRECTION ( 'NONE',  ( 0.000000000000000000, 0.000000000000000000, 1.000000000000000000 ) ) ;
#219 = LOCAL_TIME ( 12, 36, 0.000000000000000000, #70 ) ;
#220 = CYLINDRICAL_SURFACE ( 'NONE', #290, 1.000000000000000000 ) ;
#221 = CIRCLE ( 'NONE', #56, 1.000000000000000000 ) ;
#222 = ADVANCED_FACE ( 'NONE', ( #95 ), #220, .T. ) ;
#223 = ORIENTED_EDGE ( 'NONE', *, *, #109, .F. ) ;
#224 = ORIENTED_EDGE ( 'NONE', *, *, #109, .T. ) ;
#225 = ORIENTED_EDGE ( 'NONE', *, *, #292, .T. ) ;
#226 = CARTESIAN_POINT ( 'NONE',  ( 0.000000000000000000, 0.000000000000000000, 0.000000000000000000 ) ) ;
#227 = AXIS2_PLACEMENT_3D ( 'NONE', #35, #73, #98 ) ;
#228 = CARTESIAN_POINT ( 'NONE',  ( -1.200000000000000178, 1.469576158976823799E-16, 2.000000000000003553 ) ) ;
#229 = EDGE_CURVE ( 'NONE', #304, #104, #221, .T. ) ;
#230 = PERSON_AND_ORGANIZATION_ROLE ( 'creator' ) ;
#231 = ORIENTED_EDGE ( 'NONE', *, *, #269, .T. ) ;
#232 = LOCAL_TIME ( 12, 36, 0.000000000000000000, #303 ) ;
#233 = COORDINATED_UNIVERSAL_TIME_OFFSET ( 1, 0, .AHEAD. ) ;
#234 = ORIENTED_EDGE ( 'NONE', *, *, #121, .F. ) ;
#235 = PERSON_AND_ORGANIZATION ( #11, #161 ) ;
#236 = ORIENTED_EDGE ( 'NONE', *, *, #191, .T. ) ;
#237 = AXIS2_PLACEMENT_3D ( 'NONE', #266, #243, #241 ) ;
#238 = PERSON_AND_ORGANIZATION ( #11, #161 ) ;
#239 = CARTESIAN_POINT ( 'NONE',  ( 0.000000000000000000, 0.000000000000000000, 2.000000000000000000 ) ) ;
#240 = DIRECTION ( 'NONE',  ( 0.000000000000000000, 0.000000000000000000, -1.000000000000000000 ) ) ;
#241 = DIRECTION ( 'NONE',  ( 1.000000000000000000, 0.000000000000000000, 0.000000000000000000 ) ) ;
#242 = EDGE_CURVE ( 'NONE', #104, #199, #264, .T. ) ;
#243 = DIRECTION ( 'NONE',  ( 0.000000000000000000, 0.000000000000000000, 1.000000000000000000 ) ) ;
#244 = DIRECTION ( 'NONE',  ( 1.000000000000000000, 0.000000000000000000, 0.000000000000000000 ) ) ;
#245 = DIRECTION ( 'NONE',  ( -0.000000000000000000, -0.000000000000000000, -1.000000000000000000 ) ) ;
#246 = CLOSED_SHELL ( 'NONE', ( #202, #222, #16, #131, #168, #100, #197, #254, #145 ) ) ;
#247 = EDGE_CURVE ( 'NONE', #104, #304, #200, .T. ) ;
#248 =( NAMED_UNIT ( * ) SI_UNIT ( $, .STERADIAN. ) SOLID_ANGLE_UNIT ( ) );
#249 = ORIENTED_EDGE ( 'NONE', *, *, #149, .T. ) ;
#250 = CC_DESIGN_PERSON_AND_ORGANIZATION_ASSIGNMENT ( #235, #212, ( #259 ) ) ;
#251 = ORIENTED_EDGE ( 'NONE', *, *, #284, .F. ) ;
#252 = PERSON_AND_ORGANIZATION ( #11, #161 ) ;
#253 = VERTEX_POINT ( 'NONE', #51 ) ;
#254 = ADVANCED_FACE ( 'NONE', ( #143 ), #78, .T. ) ;
#255 = AXIS2_PLACEMENT_3D ( 'NONE', #64, #25, #48 ) ;
#256 = CARTESIAN_POINT ( 'NONE',  ( 0.000000000000000000, 0.000000000000000000, 0.000000000000000000 ) ) ;
#257 = MECHANICAL_CONTEXT ( 'NONE', #169, 'mechanical' ) ;
#258 = VERTEX_POINT ( 'NONE', #194 ) ;
#259 = PRODUCT_DEFINITION_FORMATION_WITH_SPECIFIED_SOURCE ( 'LIBOVOLNÝ', '', #299, .NOT_KNOWN. ) ;
#260 = DIRECTION ( 'NONE',  ( -1.000000000000000000, 0.000000000000000000, 0.000000000000000000 ) ) ;
#261 = COORDINATED_UNIVERSAL_TIME_OFFSET ( 1, 0, .AHEAD. ) ;
#262 = ORIENTED_EDGE ( 'NONE', *, *, #177, .F. ) ;
#263 = DIRECTION ( 'NONE',  ( -0.000000000000000000, -0.000000000000000000, -1.000000000000000000 ) ) ;
#264 = LINE ( 'NONE', #287, #10 ) ;
#265 = PRODUCT_DEFINITION ( 'NEZNÁMÝ', '', #259, #195 ) ;
#266 = CARTESIAN_POINT ( 'NONE',  ( 0.000000000000000000, 0.000000000000000000, 2.200000000000007283 ) ) ;
#267 = DIRECTION ( 'NONE',  ( 1.000000000000000000, 0.000000000000000000, -0.000000000000000000 ) ) ;
#268 = DIRECTION ( 'NONE',  ( 0.000000000000000000, -1.000000000000000000, 0.000000000000000000 ) ) ;
#269 = EDGE_CURVE ( 'NONE', #258, #291, #217, .T. ) ;
#270 = APPROVAL_PERSON_ORGANIZATION ( #238, #172, #28 ) ;
#271 = CIRCLE ( 'NONE', #133, 2.000000000000000000 ) ;
#272 = PRODUCT_RELATED_PRODUCT_CATEGORY ( 'detail', '', ( #299 ) ) ;
#273 = APPROVAL_STATUS ( 'not_yet_approved' ) ;
#274 = ORIENTED_EDGE ( 'NONE', *, *, #242, .T. ) ;
#275 = CALENDAR_DATE ( 2022, 7, 7 ) ;
#276 = CARTESIAN_POINT ( 'NONE',  ( 0.000000000000000000, 0.000000000000000000, 2.000000000000000000 ) ) ;
#277 = PERSON_AND_ORGANIZATION_ROLE ( 'creator' ) ;
#278 = CARTESIAN_POINT ( 'NONE',  ( 0.000000000000000000, 0.000000000000000000, 2.000000000000000000 ) ) ;
#279 = CALENDAR_DATE ( 2022, 7, 7 ) ;
#280 = DIRECTION ( 'NONE',  ( -1.000000000000000000, 0.000000000000000000, 0.000000000000000000 ) ) ;
#281 = CIRCLE ( 'NONE', #63, 1.200000000000000178 ) ;
#282 = DIRECTION ( 'NONE',  ( 0.000000000000000000, 0.000000000000000000, 1.000000000000000000 ) ) ;
#283 = DIRECTION ( 'NONE',  ( 0.000000000000000000, 0.000000000000000000, 1.000000000000000000 ) ) ;
#284 = EDGE_CURVE ( 'NONE', #301, #294, #180, .T. ) ;
#285 = CARTESIAN_POINT ( 'NONE',  ( -1.000000000000000000, 0.000000000000000000, 2.200000000000007283 ) ) ;
#286 = DIRECTION ( 'NONE',  ( -1.000000000000000000, 0.000000000000000000, 0.000000000000000000 ) ) ;
#287 = CARTESIAN_POINT ( 'NONE',  ( -1.000000000000000000, 0.000000000000000000, 162.0000000000000000 ) ) ;
#288 = AXIS2_PLACEMENT_3D ( 'NONE', #306, #42, #86 ) ;
#289 = ORIENTED_EDGE ( 'NONE', *, *, #284, .T. ) ;
#290 = AXIS2_PLACEMENT_3D ( 'NONE', #72, #1, #193 ) ;
#291 = VERTEX_POINT ( 'NONE', #173 ) ;
#292 = EDGE_CURVE ( 'NONE', #203, #253, #33, .T. ) ;
#293 = AXIS2_PLACEMENT_3D ( 'NONE', #276, #218, #6 ) ;
#294 = VERTEX_POINT ( 'NONE', #122 ) ;
#295 = VECTOR ( 'NONE', #148, 1000.000000000000000 ) ;
#296 = APPROVAL_DATE_TIME ( #139, #185 ) ;
#297 = ORIENTED_EDGE ( 'NONE', *, *, #46, .T. ) ;
#298 = DIRECTION ( 'NONE',  ( 0.000000000000000000, 0.000000000000000000, 1.000000000000000000 ) ) ;
#299 = PRODUCT ( '8ebd', '8ebd', '', ( #257 ) ) ;
#300 = DATE_AND_TIME ( #85, #219 ) ;
#301 = VERTEX_POINT ( 'NONE', #151 ) ;
#302 = CC_DESIGN_PERSON_AND_ORGANIZATION_ASSIGNMENT ( #208, #277, ( #259 ) ) ;
#303 = COORDINATED_UNIVERSAL_TIME_OFFSET ( 1, 0, .AHEAD. ) ;
#304 = VERTEX_POINT ( 'NONE', #118 ) ;
#305 = PERSON_AND_ORGANIZATION_ROLE ( 'classification_officer' ) ;
#306 = CARTESIAN_POINT ( 'NONE',  ( -1.200000000000000178, 1.469576158976823799E-16, 2.200000000000007283 ) ) ;
#307 = CC_DESIGN_SECURITY_CLASSIFICATION ( #144, ( #259 ) ) ;
ENDSEC;
END-ISO-10303-21;
