ISO-10303-21;
HEADER;
FILE_DESCRIPTION (( 'STEP AP203' ),
    '1' );
FILE_NAME ('20d7.STEP',
    '2022-07-07T10:02:05',
    ( '' ),
    ( '' ),
    'SwSTEP 2.0',
    'SolidWorks 2019',
    '' );
FILE_SCHEMA (( 'CONFIG_CONTROL_DESIGN' ));
ENDSEC;

DATA;
#1 = LOCAL_TIME ( 12, 2, 5.000000000000000000, #25 ) ;
#2 = PRODUCT_DEFINITION_SHAPE ( 'NONE', 'NONE',  #218 ) ;
#3 = ADVANCED_FACE ( 'NONE', ( #241 ), #103, .T. ) ;
#4 = DESIGN_CONTEXT ( 'detailed design', #66, 'design' ) ;
#5 =( GEOMETRIC_REPRESENTATION_CONTEXT ( 3 ) GLOBAL_UNCERTAINTY_ASSIGNED_CONTEXT ( ( #122 ) ) GLOBAL_UNIT_ASSIGNED_CONTEXT ( ( #165, #141, #256 ) ) REPRESENTATION_CONTEXT ( 'NONE', 'WORKASPACE' ) );
#6 = CARTESIAN_POINT ( 'NONE',  ( 7.000000000000000000, 8.572527594031473190E-16, 5.000000000000000000 ) ) ;
#7 = PERSON_AND_ORGANIZATION_ROLE ( 'design_supplier' ) ;
#8 = CARTESIAN_POINT ( 'NONE',  ( 4.000000000000000000, 4.898587196589412829E-16, 5.199999999999982414 ) ) ;
#9 = ORIENTED_EDGE ( 'NONE', *, *, #219, .F. ) ;
#10 = CALENDAR_DATE ( 2022, 7, 7 ) ;
#11 = VERTEX_POINT ( 'NONE', #6 ) ;
#12 = ADVANCED_FACE ( 'NONE', ( #57 ), #152, .T. ) ;
#13 = DIRECTION ( 'NONE',  ( 0.000000000000000000, 0.000000000000000000, -1.000000000000000000 ) ) ;
#14 = CARTESIAN_POINT ( 'NONE',  ( 0.000000000000000000, 0.000000000000000000, 5.000000000000000000 ) ) ;
#15 = CIRCLE ( 'NONE', #192, 4.000000000000000000 ) ;
#16 = EDGE_LOOP ( 'NONE', ( #63, #142, #290, #31 ) ) ;
#17 = EDGE_CURVE ( 'NONE', #301, #104, #263, .T. ) ;
#18 = DIRECTION ( 'NONE',  ( -0.000000000000000000, -0.000000000000000000, -1.000000000000000000 ) ) ;
#19 = DIRECTION ( 'NONE',  ( 0.000000000000000000, 0.000000000000000000, 1.000000000000000000 ) ) ;
#20 = VECTOR ( 'NONE', #146, 1000.000000000000000 ) ;
#21 = CC_DESIGN_DATE_AND_TIME_ASSIGNMENT ( #153, #80, ( #218 ) ) ;
#22 = LINE ( 'NONE', #97, #124 ) ;
#23 = EDGE_CURVE ( 'NONE', #104, #301, #75, .T. ) ;
#24 = ORIENTED_EDGE ( 'NONE', *, *, #149, .F. ) ;
#25 = COORDINATED_UNIVERSAL_TIME_OFFSET ( 1, 0, .AHEAD. ) ;
#26 = DIRECTION ( 'NONE',  ( 0.000000000000000000, 0.000000000000000000, 1.000000000000000000 ) ) ;
#27 = TOROIDAL_SURFACE ( 'NONE', #77, 4.200000000000000178, 0.2000000000000000111 ) ;
#28 = CALENDAR_DATE ( 2022, 7, 7 ) ;
#29 = ORIENTED_EDGE ( 'NONE', *, *, #219, .T. ) ;
#30 = PERSON_AND_ORGANIZATION_ROLE ( 'creator' ) ;
#31 = ORIENTED_EDGE ( 'NONE', *, *, #189, .F. ) ;
#32 = DIRECTION ( 'NONE',  ( -1.000000000000000000, 0.000000000000000000, 0.000000000000000000 ) ) ;
#33 = COORDINATED_UNIVERSAL_TIME_OFFSET ( 1, 0, .AHEAD. ) ;
#34 = DIRECTION ( 'NONE',  ( 0.000000000000000000, 0.000000000000000000, 1.000000000000000000 ) ) ;
#35 = APPROVAL_DATE_TIME ( #156, #95 ) ;
#36 = AXIS2_PLACEMENT_3D ( 'NONE', #244, #26, #224 ) ;
#37 = CARTESIAN_POINT ( 'NONE',  ( 0.000000000000000000, 0.000000000000000000, 5.000000000000000000 ) ) ;
#38 = VERTEX_POINT ( 'NONE', #8 ) ;
#39 = ADVANCED_FACE ( 'NONE', ( #276 ), #27, .F. ) ;
#40 = CARTESIAN_POINT ( 'NONE',  ( -7.000000000000000000, 0.000000000000000000, 5.000000000000000000 ) ) ;
#41 = ORIENTED_EDGE ( 'NONE', *, *, #23, .F. ) ;
#42 = CARTESIAN_POINT ( 'NONE',  ( 4.000000000000000000, 4.898587196589412829E-16, 1004.999999999999886 ) ) ;
#43 = DIRECTION ( 'NONE',  ( 0.000000000000000000, 0.000000000000000000, 1.000000000000000000 ) ) ;
#44 = CARTESIAN_POINT ( 'NONE',  ( 0.000000000000000000, 0.000000000000000000, 5.199999999999982414 ) ) ;
#45 = APPROVAL ( #199, 'NEURÈENÝ' ) ;
#46 = DIRECTION ( 'NONE',  ( 0.000000000000000000, 0.000000000000000000, 1.000000000000000000 ) ) ;
#47 = DIRECTION ( 'NONE',  ( 0.000000000000000000, 0.000000000000000000, 1.000000000000000000 ) ) ;
#48 = EDGE_CURVE ( 'NONE', #38, #88, #121, .T. ) ;
#49 = CC_DESIGN_PERSON_AND_ORGANIZATION_ASSIGNMENT ( #251, #7, ( #220 ) ) ;
#50 = CARTESIAN_POINT ( 'NONE',  ( 0.000000000000000000, 0.000000000000000000, 0.000000000000000000 ) ) ;
#51 = AXIS2_PLACEMENT_3D ( 'NONE', #110, #70, #287 ) ;
#52 = TOROIDAL_SURFACE ( 'NONE', #172, 4.200000000000000178, 0.2000000000000000111 ) ;
#53 = AXIS2_PLACEMENT_3D ( 'NONE', #85, #183, #13 ) ;
#54 = EDGE_CURVE ( 'NONE', #11, #272, #265, .T. ) ;
#55 = DIRECTION ( 'NONE',  ( -0.000000000000000000, -0.000000000000000000, -1.000000000000000000 ) ) ;
#56 = PERSON_AND_ORGANIZATION ( #83, #206 ) ;
#57 = FACE_OUTER_BOUND ( 'NONE', #234, .T. ) ;
#58 = APPROVAL_STATUS ( 'not_yet_approved' ) ;
#59 = APPROVAL_ROLE ( '' ) ;
#60 = CARTESIAN_POINT ( 'NONE',  ( 0.000000000000000000, 0.000000000000000000, 5.000000000000000000 ) ) ;
#61 = DIRECTION ( 'NONE',  ( 0.000000000000000000, 0.000000000000000000, 1.000000000000000000 ) ) ;
#62 = APPROVAL_PERSON_ORGANIZATION ( #242, #45, #209 ) ;
#63 = ORIENTED_EDGE ( 'NONE', *, *, #113, .F. ) ;
#64 = AXIS2_PLACEMENT_3D ( 'NONE', #161, #158, #32 ) ;
#65 = DIRECTION ( 'NONE',  ( 1.000000000000000000, 0.000000000000000000, 0.000000000000000000 ) ) ;
#66 = APPLICATION_CONTEXT ( 'configuration controlled 3d designs of mechanical parts and assemblies' ) ;
#67 = ORIENTED_EDGE ( 'NONE', *, *, #48, .T. ) ;
#68 = APPLICATION_PROTOCOL_DEFINITION ( 'international standard', 'config_control_design', 1994, #207 ) ;
#69 = CARTESIAN_POINT ( 'NONE',  ( 0.000000000000000000, 0.000000000000000000, 0.000000000000000000 ) ) ;
#70 = DIRECTION ( 'NONE',  ( -0.000000000000000000, -0.000000000000000000, -1.000000000000000000 ) ) ;
#71 = CARTESIAN_POINT ( 'NONE',  ( 4.000000000000000000, 4.898587196589412829E-16, 1004.999999999999886 ) ) ;
#72 = DIRECTION ( 'NONE',  ( 1.000000000000000000, 0.000000000000000000, 0.000000000000000000 ) ) ;
#73 = VECTOR ( 'NONE', #96, 1000.000000000000000 ) ;
#74 = CC_DESIGN_APPROVAL ( #45, ( #218 ) ) ;
#75 = CIRCLE ( 'NONE', #36, 7.000000000000000000 ) ;
#76 = ADVANCED_FACE ( 'NONE', ( #87, #204 ), #137, .T. ) ;
#77 = AXIS2_PLACEMENT_3D ( 'NONE', #107, #133, #295 ) ;
#78 = CIRCLE ( 'NONE', #268, 7.000000000000000000 ) ;
#79 = ORIENTED_EDGE ( 'NONE', *, *, #264, .F. ) ;
#80 = DATE_TIME_ROLE ( 'creation_date' ) ;
#81 = ORIENTED_EDGE ( 'NONE', *, *, #173, .F. ) ;
#82 = ORIENTED_EDGE ( 'NONE', *, *, #189, .T. ) ;
#83 = PERSON ( 'NEURÈENÝ', 'NEURÈENÝ', 'NEURÈENÝ', ('NEURÈENÝ'), ('NEURÈENÝ'), ('NEURÈENÝ') ) ;
#84 = DATE_AND_TIME ( #134, #125 ) ;
#85 = CARTESIAN_POINT ( 'NONE',  ( 4.200000000000000178, 0.000000000000000000, 5.199999999999982414 ) ) ;
#86 = VERTEX_POINT ( 'NONE', #208 ) ;
#87 = FACE_BOUND ( 'NONE', #227, .T. ) ;
#88 = VERTEX_POINT ( 'NONE', #298 ) ;
#89 = ADVANCED_FACE ( 'NONE', ( #182 ), #274, .T. ) ;
#90 = ORIENTED_EDGE ( 'NONE', *, *, #102, .T. ) ;
#91 = AXIS2_PLACEMENT_3D ( 'NONE', #145, #46, #236 ) ;
#92 = DIRECTION ( 'NONE',  ( 1.000000000000000000, 0.000000000000000000, 0.000000000000000000 ) ) ;
#93 = DIRECTION ( 'NONE',  ( 0.000000000000000000, 0.000000000000000000, 1.000000000000000000 ) ) ;
#94 = DIRECTION ( 'NONE',  ( -1.000000000000000000, 1.224646799147353454E-16, 0.000000000000000000 ) ) ;
#95 = APPROVAL ( #58, 'NEURÈENÝ' ) ;
#96 = DIRECTION ( 'NONE',  ( -0.000000000000000000, -0.000000000000000000, -1.000000000000000000 ) ) ;
#97 = CARTESIAN_POINT ( 'NONE',  ( -4.000000000000000000, 0.000000000000000000, 1004.999999999999886 ) ) ;
#98 = ADVANCED_FACE ( 'NONE', ( #250 ), #229, .T. ) ;
#99 = AXIS2_PLACEMENT_3D ( 'NONE', #307, #305, #216 ) ;
#100 = DIRECTION ( 'NONE',  ( 0.000000000000000000, 0.000000000000000000, 1.000000000000000000 ) ) ;
#101 = APPROVAL_DATE_TIME ( #84, #109 ) ;
#102 = EDGE_CURVE ( 'NONE', #205, #88, #303, .T. ) ;
#103 = CYLINDRICAL_SURFACE ( 'NONE', #169, 7.000000000000000000 ) ;
#104 = VERTEX_POINT ( 'NONE', #262 ) ;
#105 = SECURITY_CLASSIFICATION_LEVEL ( 'unclassified' ) ;
#106 = ORIENTED_EDGE ( 'NONE', *, *, #238, .F. ) ;
#107 = CARTESIAN_POINT ( 'NONE',  ( 0.000000000000000000, 0.000000000000000000, 5.199999999999982414 ) ) ;
#108 = AXIS2_PLACEMENT_3D ( 'NONE', #176, #100, #198 ) ;
#109 = APPROVAL ( #296, 'NEURÈENÝ' ) ;
#110 = CARTESIAN_POINT ( 'NONE',  ( 0.000000000000000000, 0.000000000000000000, 1004.999999999999886 ) ) ;
#111 = APPLICATION_PROTOCOL_DEFINITION ( 'international standard', 'config_control_design', 1994, #66 ) ;
#112 = DIRECTION ( 'NONE',  ( 1.000000000000000000, 0.000000000000000000, 0.000000000000000000 ) ) ;
#113 = EDGE_CURVE ( 'NONE', #202, #114, #240, .T. ) ;
#114 = VERTEX_POINT ( 'NONE', #191 ) ;
#115 = APPROVAL_PERSON_ORGANIZATION ( #130, #95, #59 ) ;
#116 = CIRCLE ( 'NONE', #266, 4.200000000000000178 ) ;
#117 = DIRECTION ( 'NONE',  ( 1.224646799147353207E-16, 1.000000000000000000, -0.000000000000000000 ) ) ;
#118 = FACE_OUTER_BOUND ( 'NONE', #247, .T. ) ;
#119 = DIRECTION ( 'NONE',  ( -0.000000000000000000, -0.000000000000000000, -1.000000000000000000 ) ) ;
#120 = CC_DESIGN_APPROVAL ( #95, ( #252 ) ) ;
#121 = CIRCLE ( 'NONE', #53, 0.1999999999999996503 ) ;
#122 = UNCERTAINTY_MEASURE_WITH_UNIT (LENGTH_MEASURE( 1.000000000000000082E-05 ), #165, 'distance_accuracy_value', 'NONE');
#123 = CC_DESIGN_PERSON_AND_ORGANIZATION_ASSIGNMENT ( #277, #273, ( #252 ) ) ;
#124 = VECTOR ( 'NONE', #119, 1000.000000000000000 ) ;
#125 = LOCAL_TIME ( 12, 2, 5.000000000000000000, #33 ) ;
#126 = CARTESIAN_POINT ( 'NONE',  ( 0.000000000000000000, 0.000000000000000000, 1004.999999999999886 ) ) ;
#127 = COORDINATED_UNIVERSAL_TIME_OFFSET ( 1, 0, .AHEAD. ) ;
#128 = ORIENTED_EDGE ( 'NONE', *, *, #288, .F. ) ;
#129 = ORIENTED_EDGE ( 'NONE', *, *, #113, .T. ) ;
#130 = PERSON_AND_ORGANIZATION ( #83, #206 ) ;
#131 = ORIENTED_EDGE ( 'NONE', *, *, #54, .T. ) ;
#132 = CC_DESIGN_PERSON_AND_ORGANIZATION_ASSIGNMENT ( #159, #30, ( #218 ) ) ;
#133 = DIRECTION ( 'NONE',  ( 0.000000000000000000, 0.000000000000000000, 1.000000000000000000 ) ) ;
#134 = CALENDAR_DATE ( 2022, 7, 7 ) ;
#135 = ADVANCED_FACE ( 'NONE', ( #171 ), #168, .F. ) ;
#136 = CC_DESIGN_DATE_AND_TIME_ASSIGNMENT ( #253, #203, ( #252 ) ) ;
#137 = PLANE ( 'NONE',  #164 ) ;
#138 = CARTESIAN_POINT ( 'NONE',  ( -7.000000000000000000, 0.000000000000000000, 5.000000000000000000 ) ) ;
#139 = ORIENTED_EDGE ( 'NONE', *, *, #17, .F. ) ;
#140 = CIRCLE ( 'NONE', #195, 4.000000000000000000 ) ;
#141 =( NAMED_UNIT ( * ) PLANE_ANGLE_UNIT ( ) SI_UNIT ( $, .RADIAN. ) );
#142 = ORIENTED_EDGE ( 'NONE', *, *, #238, .T. ) ;
#143 = CC_DESIGN_APPROVAL ( #109, ( #220 ) ) ;
#144 = LINE ( 'NONE', #138, #284 ) ;
#145 = CARTESIAN_POINT ( 'NONE',  ( 0.000000000000000000, 0.000000000000000000, 5.199999999999982414 ) ) ;
#146 = DIRECTION ( 'NONE',  ( -0.000000000000000000, -0.000000000000000000, -1.000000000000000000 ) ) ;
#147 = CARTESIAN_POINT ( 'NONE',  ( -4.200000000000000178, 5.143516556418882928E-16, 5.199999999999982414 ) ) ;
#148 = CC_DESIGN_PERSON_AND_ORGANIZATION_ASSIGNMENT ( #180, #226, ( #220 ) ) ;
#149 = EDGE_CURVE ( 'NONE', #38, #86, #150, .T. ) ;
#150 = CIRCLE ( 'NONE', #91, 4.000000000000000000 ) ;
#151 = AXIS2_PLACEMENT_3D ( 'NONE', #69, #302, #92 ) ;
#152 = PLANE ( 'NONE',  #181 ) ;
#153 = DATE_AND_TIME ( #275, #243 ) ;
#154 = DIRECTION ( 'NONE',  ( 1.000000000000000000, 0.000000000000000000, -0.000000000000000000 ) ) ;
#155 = CALENDAR_DATE ( 2022, 7, 7 ) ;
#156 = DATE_AND_TIME ( #28, #196 ) ;
#157 = ORIENTED_EDGE ( 'NONE', *, *, #299, .T. ) ;
#158 = DIRECTION ( 'NONE',  ( -0.000000000000000000, -0.000000000000000000, -1.000000000000000000 ) ) ;
#159 = PERSON_AND_ORGANIZATION ( #83, #206 ) ;
#160 = EDGE_CURVE ( 'NONE', #86, #205, #174, .T. ) ;
#161 = CARTESIAN_POINT ( 'NONE',  ( 0.000000000000000000, 0.000000000000000000, 1004.999999999999886 ) ) ;
#162 = PERSON_AND_ORGANIZATION_ROLE ( 'design_owner' ) ;
#163 = EDGE_LOOP ( 'NONE', ( #282, #29, #297, #128 ) ) ;
#164 = AXIS2_PLACEMENT_3D ( 'NONE', #60, #61, #230 ) ;
#165 =( LENGTH_UNIT ( ) NAMED_UNIT ( * ) SI_UNIT ( .MILLI., .METRE. ) );
#166 = ORIENTED_EDGE ( 'NONE', *, *, #160, .F. ) ;
#167 = MECHANICAL_CONTEXT ( 'NONE', #207, 'mechanical' ) ;
#168 = PLANE ( 'NONE',  #281 ) ;
#169 = AXIS2_PLACEMENT_3D ( 'NONE', #269, #55, #179 ) ;
#170 = DIRECTION ( 'NONE',  ( -0.000000000000000000, -0.000000000000000000, -1.000000000000000000 ) ) ;
#171 = FACE_OUTER_BOUND ( 'NONE', #201, .T. ) ;
#172 = AXIS2_PLACEMENT_3D ( 'NONE', #44, #47, #258 ) ;
#173 = EDGE_CURVE ( 'NONE', #88, #205, #116, .T. ) ;
#174 = CIRCLE ( 'NONE', #246, 0.1999999999999996503 ) ;
#175 = CLOSED_SHELL ( 'NONE', ( #197, #98, #3, #217, #76, #135, #89, #12, #39 ) ) ;
#176 = CARTESIAN_POINT ( 'NONE',  ( 0.000000000000000000, 0.000000000000000000, 0.000000000000000000 ) ) ;
#177 = PERSON_AND_ORGANIZATION ( #83, #206 ) ;
#178 = LOCAL_TIME ( 12, 2, 5.000000000000000000, #127 ) ;
#179 = DIRECTION ( 'NONE',  ( -1.000000000000000000, 0.000000000000000000, 0.000000000000000000 ) ) ;
#180 = PERSON_AND_ORGANIZATION ( #83, #206 ) ;
#181 = AXIS2_PLACEMENT_3D ( 'NONE', #126, #221, #154 ) ;
#182 = FACE_OUTER_BOUND ( 'NONE', #271, .T. ) ;
#183 = DIRECTION ( 'NONE',  ( 0.000000000000000000, -1.000000000000000000, 0.000000000000000000 ) ) ;
#184 = EDGE_LOOP ( 'NONE', ( #166, #24, #67, #225 ) ) ;
#185 = DIRECTION ( 'NONE',  ( -0.000000000000000000, -0.000000000000000000, -1.000000000000000000 ) ) ;
#186 = ORIENTED_EDGE ( 'NONE', *, *, #173, .T. ) ;
#187 = CC_DESIGN_PERSON_AND_ORGANIZATION_ASSIGNMENT ( #56, #162, ( #193 ) ) ;
#188 = DIRECTION ( 'NONE',  ( 1.000000000000000000, 0.000000000000000000, 0.000000000000000000 ) ) ;
#189 = EDGE_CURVE ( 'NONE', #114, #86, #22, .T. ) ;
#190 = CARTESIAN_POINT ( 'NONE',  ( 7.000000000000000000, 8.572527594031473190E-16, 5.000000000000000000 ) ) ;
#191 = CARTESIAN_POINT ( 'NONE',  ( -4.000000000000000000, 0.000000000000000000, 1004.999999999999886 ) ) ;
#192 = AXIS2_PLACEMENT_3D ( 'NONE', #304, #215, #237 ) ;
#193 = PRODUCT ( '20d7', '20d7', '', ( #167 ) ) ;
#194 = ADVANCED_BREP_SHAPE_REPRESENTATION ( '20d7', ( #200, #151 ), #5 ) ;
#195 = AXIS2_PLACEMENT_3D ( 'NONE', #306, #93, #261 ) ;
#196 = LOCAL_TIME ( 12, 2, 5.000000000000000000, #245 ) ;
#197 = ADVANCED_FACE ( 'NONE', ( #118 ), #52, .F. ) ;
#198 = DIRECTION ( 'NONE',  ( 1.000000000000000000, 0.000000000000000000, 0.000000000000000000 ) ) ;
#199 = APPROVAL_STATUS ( 'not_yet_approved' ) ;
#200 = MANIFOLD_SOLID_BREP ( 'Zaoblit1', #175 ) ;
#201 = EDGE_LOOP ( 'NONE', ( #139, #41 ) ) ;
#202 = VERTEX_POINT ( 'NONE', #42 ) ;
#203 = DATE_TIME_ROLE ( 'classification_date' ) ;
#204 = FACE_OUTER_BOUND ( 'NONE', #279, .T. ) ;
#205 = VERTEX_POINT ( 'NONE', #213 ) ;
#206 = ORGANIZATION ( 'NEURÈENÝ', 'NEURÈENÝ', '' ) ;
#207 = APPLICATION_CONTEXT ( 'configuration controlled 3d designs of mechanical parts and assemblies' ) ;
#208 = CARTESIAN_POINT ( 'NONE',  ( -4.000000000000000000, 0.000000000000000000, 5.199999999999982414 ) ) ;
#209 = APPROVAL_ROLE ( '' ) ;
#210 = AXIS2_PLACEMENT_3D ( 'NONE', #37, #185, #283 ) ;
#211 = LINE ( 'NONE', #190, #20 ) ;
#212 = ORIENTED_EDGE ( 'NONE', *, *, #255, .F. ) ;
#213 = CARTESIAN_POINT ( 'NONE',  ( -4.200000000000000178, 5.143516556418882928E-16, 4.999999999999991118 ) ) ;
#214 = CARTESIAN_POINT ( 'NONE',  ( 0.000000000000000000, 0.000000000000000000, 5.000000000000000000 ) ) ;
#215 = DIRECTION ( 'NONE',  ( 0.000000000000000000, 0.000000000000000000, 1.000000000000000000 ) ) ;
#216 = DIRECTION ( 'NONE',  ( 1.000000000000000000, 0.000000000000000000, 0.000000000000000000 ) ) ;
#217 = ADVANCED_FACE ( 'NONE', ( #286 ), #300, .T. ) ;
#218 = PRODUCT_DEFINITION ( 'NEZNÁMÝ', '', #220, #4 ) ;
#219 = EDGE_CURVE ( 'NONE', #11, #104, #211, .T. ) ;
#220 = PRODUCT_DEFINITION_FORMATION_WITH_SPECIFIED_SOURCE ( 'LIBOVOLNÝ', '', #193, .NOT_KNOWN. ) ;
#221 = DIRECTION ( 'NONE',  ( 0.000000000000000000, 0.000000000000000000, 1.000000000000000000 ) ) ;
#222 = APPROVAL_DATE_TIME ( #291, #45 ) ;
#223 = AXIS2_PLACEMENT_3D ( 'NONE', #285, #239, #72 ) ;
#224 = DIRECTION ( 'NONE',  ( 1.000000000000000000, 0.000000000000000000, 0.000000000000000000 ) ) ;
#225 = ORIENTED_EDGE ( 'NONE', *, *, #102, .F. ) ;
#226 = PERSON_AND_ORGANIZATION_ROLE ( 'creator' ) ;
#227 = EDGE_LOOP ( 'NONE', ( #186, #90 ) ) ;
#228 = EDGE_LOOP ( 'NONE', ( #9, #79, #249, #232 ) ) ;
#229 = CYLINDRICAL_SURFACE ( 'NONE', #51, 4.000000000000000000 ) ;
#230 = DIRECTION ( 'NONE',  ( 1.000000000000000000, 0.000000000000000000, -0.000000000000000000 ) ) ;
#231 = CARTESIAN_POINT ( 'NONE',  ( -7.000000000000000000, 0.000000000000000000, 0.000000000000000000 ) ) ;
#232 = ORIENTED_EDGE ( 'NONE', *, *, #17, .T. ) ;
#233 = LINE ( 'NONE', #71, #73 ) ;
#234 = EDGE_LOOP ( 'NONE', ( #257, #129 ) ) ;
#235 = APPROVAL_PERSON_ORGANIZATION ( #177, #109, #270 ) ;
#236 = DIRECTION ( 'NONE',  ( 1.000000000000000000, 0.000000000000000000, 0.000000000000000000 ) ) ;
#237 = DIRECTION ( 'NONE',  ( 1.000000000000000000, 0.000000000000000000, 0.000000000000000000 ) ) ;
#238 = EDGE_CURVE ( 'NONE', #202, #38, #233, .T. ) ;
#239 = DIRECTION ( 'NONE',  ( -0.000000000000000000, -0.000000000000000000, -1.000000000000000000 ) ) ;
#240 = CIRCLE ( 'NONE', #99, 4.000000000000000000 ) ;
#241 = FACE_OUTER_BOUND ( 'NONE', #163, .T. ) ;
#242 = PERSON_AND_ORGANIZATION ( #83, #206 ) ;
#243 = LOCAL_TIME ( 12, 2, 5.000000000000000000, #294 ) ;
#244 = CARTESIAN_POINT ( 'NONE',  ( 0.000000000000000000, 0.000000000000000000, 0.000000000000000000 ) ) ;
#245 = COORDINATED_UNIVERSAL_TIME_OFFSET ( 1, 0, .AHEAD. ) ;
#246 = AXIS2_PLACEMENT_3D ( 'NONE', #147, #117, #94 ) ;
#247 = EDGE_LOOP ( 'NONE', ( #267, #293, #81, #254 ) ) ;
#248 = SHAPE_DEFINITION_REPRESENTATION ( #2, #194 ) ;
#249 = ORIENTED_EDGE ( 'NONE', *, *, #288, .T. ) ;
#250 = FACE_OUTER_BOUND ( 'NONE', #16, .T. ) ;
#251 = PERSON_AND_ORGANIZATION ( #83, #206 ) ;
#252 = SECURITY_CLASSIFICATION ( '', '', #105 ) ;
#253 = DATE_AND_TIME ( #10, #178 ) ;
#254 = ORIENTED_EDGE ( 'NONE', *, *, #48, .F. ) ;
#255 = EDGE_CURVE ( 'NONE', #114, #202, #15, .T. ) ;
#256 =( NAMED_UNIT ( * ) SI_UNIT ( $, .STERADIAN. ) SOLID_ANGLE_UNIT ( ) );
#257 = ORIENTED_EDGE ( 'NONE', *, *, #255, .T. ) ;
#258 = DIRECTION ( 'NONE',  ( 1.000000000000000000, 0.000000000000000000, 0.000000000000000000 ) ) ;
#259 = PRODUCT_RELATED_PRODUCT_CATEGORY ( 'detail', '', ( #193 ) ) ;
#260 = DIRECTION ( 'NONE',  ( 1.000000000000000000, 0.000000000000000000, -0.000000000000000000 ) ) ;
#261 = DIRECTION ( 'NONE',  ( 1.000000000000000000, 0.000000000000000000, 0.000000000000000000 ) ) ;
#262 = CARTESIAN_POINT ( 'NONE',  ( 7.000000000000000000, 8.572527594031473190E-16, 0.000000000000000000 ) ) ;
#263 = CIRCLE ( 'NONE', #108, 7.000000000000000000 ) ;
#264 = EDGE_CURVE ( 'NONE', #272, #11, #78, .T. ) ;
#265 = CIRCLE ( 'NONE', #289, 7.000000000000000000 ) ;
#266 = AXIS2_PLACEMENT_3D ( 'NONE', #214, #18, #188 ) ;
#267 = ORIENTED_EDGE ( 'NONE', *, *, #299, .F. ) ;
#268 = AXIS2_PLACEMENT_3D ( 'NONE', #280, #19, #65 ) ;
#269 = CARTESIAN_POINT ( 'NONE',  ( 0.000000000000000000, 0.000000000000000000, 5.000000000000000000 ) ) ;
#270 = APPROVAL_ROLE ( '' ) ;
#271 = EDGE_LOOP ( 'NONE', ( #106, #212, #82, #157 ) ) ;
#272 = VERTEX_POINT ( 'NONE', #40 ) ;
#273 = PERSON_AND_ORGANIZATION_ROLE ( 'classification_officer' ) ;
#274 = CYLINDRICAL_SURFACE ( 'NONE', #64, 4.000000000000000000 ) ;
#275 = CALENDAR_DATE ( 2022, 7, 7 ) ;
#276 = FACE_OUTER_BOUND ( 'NONE', #184, .T. ) ;
#277 = PERSON_AND_ORGANIZATION ( #83, #206 ) ;
#278 = CC_DESIGN_SECURITY_CLASSIFICATION ( #252, ( #220 ) ) ;
#279 = EDGE_LOOP ( 'NONE', ( #292, #131 ) ) ;
#280 = CARTESIAN_POINT ( 'NONE',  ( 0.000000000000000000, 0.000000000000000000, 5.000000000000000000 ) ) ;
#281 = AXIS2_PLACEMENT_3D ( 'NONE', #50, #43, #260 ) ;
#282 = ORIENTED_EDGE ( 'NONE', *, *, #54, .F. ) ;
#283 = DIRECTION ( 'NONE',  ( -1.000000000000000000, 0.000000000000000000, 0.000000000000000000 ) ) ;
#284 = VECTOR ( 'NONE', #170, 1000.000000000000000 ) ;
#285 = CARTESIAN_POINT ( 'NONE',  ( 0.000000000000000000, 0.000000000000000000, 5.000000000000000000 ) ) ;
#286 = FACE_OUTER_BOUND ( 'NONE', #228, .T. ) ;
#287 = DIRECTION ( 'NONE',  ( -1.000000000000000000, 0.000000000000000000, 0.000000000000000000 ) ) ;
#288 = EDGE_CURVE ( 'NONE', #272, #301, #144, .T. ) ;
#289 = AXIS2_PLACEMENT_3D ( 'NONE', #14, #34, #112 ) ;
#290 = ORIENTED_EDGE ( 'NONE', *, *, #149, .T. ) ;
#291 = DATE_AND_TIME ( #155, #1 ) ;
#292 = ORIENTED_EDGE ( 'NONE', *, *, #264, .T. ) ;
#293 = ORIENTED_EDGE ( 'NONE', *, *, #160, .T. ) ;
#294 = COORDINATED_UNIVERSAL_TIME_OFFSET ( 1, 0, .AHEAD. ) ;
#295 = DIRECTION ( 'NONE',  ( 1.000000000000000000, 0.000000000000000000, 0.000000000000000000 ) ) ;
#296 = APPROVAL_STATUS ( 'not_yet_approved' ) ;
#297 = ORIENTED_EDGE ( 'NONE', *, *, #23, .T. ) ;
#298 = CARTESIAN_POINT ( 'NONE',  ( 4.200000000000000178, 0.000000000000000000, 4.999999999999991118 ) ) ;
#299 = EDGE_CURVE ( 'NONE', #86, #38, #140, .T. ) ;
#300 = CYLINDRICAL_SURFACE ( 'NONE', #210, 7.000000000000000000 ) ;
#301 = VERTEX_POINT ( 'NONE', #231 ) ;
#302 = DIRECTION ( 'NONE',  ( 0.000000000000000000, 0.000000000000000000, 1.000000000000000000 ) ) ;
#303 = CIRCLE ( 'NONE', #223, 4.200000000000000178 ) ;
#304 = CARTESIAN_POINT ( 'NONE',  ( 0.000000000000000000, 0.000000000000000000, 1004.999999999999886 ) ) ;
#305 = DIRECTION ( 'NONE',  ( 0.000000000000000000, 0.000000000000000000, 1.000000000000000000 ) ) ;
#306 = CARTESIAN_POINT ( 'NONE',  ( 0.000000000000000000, 0.000000000000000000, 5.199999999999982414 ) ) ;
#307 = CARTESIAN_POINT ( 'NONE',  ( 0.000000000000000000, 0.000000000000000000, 1004.999999999999886 ) ) ;
ENDSEC;
END-ISO-10303-21;
