ISO-10303-21;
HEADER;
FILE_DESCRIPTION (( 'STEP AP203' ),
    '1' );
FILE_NAME ('6aea.STEP',
    '2022-07-07T09:30:36',
    ( '' ),
    ( '' ),
    'SwSTEP 2.0',
    'SolidWorks 2019',
    '' );
FILE_SCHEMA (( 'CONFIG_CONTROL_DESIGN' ));
ENDSEC;

DATA;
#1 = EDGE_LOOP ( 'NONE', ( #85, #120 ) ) ;
#2 = CARTESIAN_POINT ( 'NONE',  ( 12.70000000000000107, 0.000000000000000000, 10.19999999999998685 ) ) ;
#3 = EDGE_CURVE ( 'NONE', #305, #130, #29, .T. ) ;
#4 = DIRECTION ( 'NONE',  ( -0.000000000000000000, -0.000000000000000000, -1.000000000000000000 ) ) ;
#5 = AXIS2_PLACEMENT_3D ( 'NONE', #48, #27, #32 ) ;
#6 = COORDINATED_UNIVERSAL_TIME_OFFSET ( 1, 0, .AHEAD. ) ;
#7 = CC_DESIGN_APPROVAL ( #214, ( #104 ) ) ;
#8 = CC_DESIGN_PERSON_AND_ORGANIZATION_ASSIGNMENT ( #301, #89, ( #125 ) ) ;
#9 = CARTESIAN_POINT ( 'NONE',  ( 0.000000000000000000, 0.000000000000000000, 10.19999999999998685 ) ) ;
#10 = PERSON_AND_ORGANIZATION ( #45, #122 ) ;
#11 = CARTESIAN_POINT ( 'NONE',  ( -12.70000000000000107, 1.555301434917138630E-15, 9.999999999999992895 ) ) ;
#12 = APPROVAL_ROLE ( '' ) ;
#13 = APPLICATION_PROTOCOL_DEFINITION ( 'international standard', 'config_control_design', 1994, #68 ) ;
#14 = APPLICATION_CONTEXT ( 'configuration controlled 3d designs of mechanical parts and assemblies' ) ;
#15 = CARTESIAN_POINT ( 'NONE',  ( 0.000000000000000000, 0.000000000000000000, 1210.000000000000000 ) ) ;
#16 = CIRCLE ( 'NONE', #189, 12.50000000000000000 ) ;
#17 = EDGE_CURVE ( 'NONE', #112, #283, #235, .T. ) ;
#18 = ORIENTED_EDGE ( 'NONE', *, *, #3, .F. ) ;
#19 = AXIS2_PLACEMENT_3D ( 'NONE', #142, #238, #258 ) ;
#20 = FACE_OUTER_BOUND ( 'NONE', #185, .T. ) ;
#21 = PLANE ( 'NONE',  #178 ) ;
#22 = DIRECTION ( 'NONE',  ( -0.000000000000000000, -0.000000000000000000, -1.000000000000000000 ) ) ;
#23 = EDGE_CURVE ( 'NONE', #298, #130, #159, .T. ) ;
#24 = ADVANCED_FACE ( 'NONE', ( #161 ), #69, .T. ) ;
#25 = DIRECTION ( 'NONE',  ( -0.000000000000000000, -0.000000000000000000, -1.000000000000000000 ) ) ;
#26 = PERSON_AND_ORGANIZATION_ROLE ( 'classification_officer' ) ;
#27 = DIRECTION ( 'NONE',  ( 0.000000000000000000, 0.000000000000000000, 1.000000000000000000 ) ) ;
#28 = DATE_AND_TIME ( #56, #82 ) ;
#29 = CIRCLE ( 'NONE', #201, 12.50000000000000000 ) ;
#30 = CARTESIAN_POINT ( 'NONE',  ( 0.000000000000000000, 0.000000000000000000, 0.000000000000000000 ) ) ;
#31 = CC_DESIGN_APPROVAL ( #182, ( #180 ) ) ;
#32 = DIRECTION ( 'NONE',  ( 1.000000000000000000, 0.000000000000000000, 0.000000000000000000 ) ) ;
#33 = DATE_TIME_ROLE ( 'classification_date' ) ;
#34 = ORIENTED_EDGE ( 'NONE', *, *, #215, .T. ) ;
#35 = CIRCLE ( 'NONE', #171, 0.2000000000000005107 ) ;
#36 = DIRECTION ( 'NONE',  ( 1.000000000000000000, 0.000000000000000000, 0.000000000000000000 ) ) ;
#37 = AXIS2_PLACEMENT_3D ( 'NONE', #200, #59, #181 ) ;
#38 = COORDINATED_UNIVERSAL_TIME_OFFSET ( 1, 0, .AHEAD. ) ;
#39 = CARTESIAN_POINT ( 'NONE',  ( -12.50000000000000000, 0.000000000000000000, 1210.000000000000000 ) ) ;
#40 = ADVANCED_FACE ( 'NONE', ( #20 ), #256, .F. ) ;
#41 = ORIENTED_EDGE ( 'NONE', *, *, #119, .F. ) ;
#42 = ORIENTED_EDGE ( 'NONE', *, *, #23, .F. ) ;
#43 = CIRCLE ( 'NONE', #233, 12.70000000000000107 ) ;
#44 = ORIENTED_EDGE ( 'NONE', *, *, #203, .F. ) ;
#45 = PERSON ( 'NEURÈENÝ', 'NEURÈENÝ', 'NEURÈENÝ', ('NEURÈENÝ'), ('NEURÈENÝ'), ('NEURÈENÝ') ) ;
#46 = EDGE_LOOP ( 'NONE', ( #44, #117, #173, #42 ) ) ;
#47 = ADVANCED_FACE ( 'NONE', ( #241, #240 ), #21, .T. ) ;
#48 = CARTESIAN_POINT ( 'NONE',  ( 0.000000000000000000, 0.000000000000000000, 1210.000000000000000 ) ) ;
#49 = DIRECTION ( 'NONE',  ( 1.000000000000000000, 0.000000000000000000, 0.000000000000000000 ) ) ;
#50 = APPROVAL_DATE_TIME ( #223, #182 ) ;
#51 = CALENDAR_DATE ( 2022, 7, 7 ) ;
#52 = AXIS2_PLACEMENT_3D ( 'NONE', #30, #167, #123 ) ;
#53 = DIRECTION ( 'NONE',  ( -0.000000000000000000, -0.000000000000000000, -1.000000000000000000 ) ) ;
#54 = PERSON_AND_ORGANIZATION ( #45, #122 ) ;
#55 = LOCAL_TIME ( 11, 30, 36.00000000000000000, #103 ) ;
#56 = CALENDAR_DATE ( 2022, 7, 7 ) ;
#57 = VERTEX_POINT ( 'NONE', #72 ) ;
#58 =( LENGTH_UNIT ( ) NAMED_UNIT ( * ) SI_UNIT ( .MILLI., .METRE. ) );
#59 = DIRECTION ( 'NONE',  ( 0.000000000000000000, 0.000000000000000000, 1.000000000000000000 ) ) ;
#60 = ORIENTED_EDGE ( 'NONE', *, *, #255, .T. ) ;
#61 = LOCAL_TIME ( 11, 30, 36.00000000000000000, #38 ) ;
#62 = DIRECTION ( 'NONE',  ( 1.000000000000000000, 0.000000000000000000, 0.000000000000000000 ) ) ;
#63 = EDGE_CURVE ( 'NONE', #111, #305, #163, .T. ) ;
#64 = CARTESIAN_POINT ( 'NONE',  ( 0.000000000000000000, 0.000000000000000000, 10.00000000000000000 ) ) ;
#65 = EDGE_LOOP ( 'NONE', ( #198, #93 ) ) ;
#66 = DIRECTION ( 'NONE',  ( 0.000000000000000000, 0.000000000000000000, 1.000000000000000000 ) ) ;
#67 = DIRECTION ( 'NONE',  ( -0.000000000000000000, -0.000000000000000000, -1.000000000000000000 ) ) ;
#68 = APPLICATION_CONTEXT ( 'configuration controlled 3d designs of mechanical parts and assemblies' ) ;
#69 = CYLINDRICAL_SURFACE ( 'NONE', #213, 12.50000000000000000 ) ;
#70 = ORIENTED_EDGE ( 'NONE', *, *, #229, .F. ) ;
#71 = DESIGN_CONTEXT ( 'detailed design', #14, 'design' ) ;
#72 = CARTESIAN_POINT ( 'NONE',  ( 16.00000000000000000, 1.959434878635765131E-15, 0.000000000000000000 ) ) ;
#73 = CIRCLE ( 'NONE', #274, 16.00000000000000000 ) ;
#74 = CARTESIAN_POINT ( 'NONE',  ( 0.000000000000000000, 0.000000000000000000, 10.00000000000000000 ) ) ;
#75 = DATE_AND_TIME ( #51, #143 ) ;
#76 = FACE_OUTER_BOUND ( 'NONE', #281, .T. ) ;
#77 = DIRECTION ( 'NONE',  ( 1.000000000000000000, 0.000000000000000000, 0.000000000000000000 ) ) ;
#78 = PERSON_AND_ORGANIZATION_ROLE ( 'creator' ) ;
#79 = DIRECTION ( 'NONE',  ( 1.224646799147353207E-16, 1.000000000000000000, -0.000000000000000000 ) ) ;
#80 = AXIS2_PLACEMENT_3D ( 'NONE', #147, #266, #286 ) ;
#81 = ORIENTED_EDGE ( 'NONE', *, *, #229, .T. ) ;
#82 = LOCAL_TIME ( 11, 30, 36.00000000000000000, #124 ) ;
#83 = PRODUCT_RELATED_PRODUCT_CATEGORY ( 'detail', '', ( #125 ) ) ;
#84 = APPROVAL ( #157, 'NEURÈENÝ' ) ;
#85 = ORIENTED_EDGE ( 'NONE', *, *, #119, .T. ) ;
#86 = DIRECTION ( 'NONE',  ( -0.000000000000000000, -0.000000000000000000, -1.000000000000000000 ) ) ;
#87 = AXIS2_PLACEMENT_3D ( 'NONE', #169, #53, #152 ) ;
#88 = APPROVAL_PERSON_ORGANIZATION ( #295, #182, #12 ) ;
#89 = PERSON_AND_ORGANIZATION_ROLE ( 'design_owner' ) ;
#90 = DIRECTION ( 'NONE',  ( 0.000000000000000000, 0.000000000000000000, 1.000000000000000000 ) ) ;
#91 = VERTEX_POINT ( 'NONE', #101 ) ;
#92 = CARTESIAN_POINT ( 'NONE',  ( -16.00000000000000000, 0.000000000000000000, 10.00000000000000000 ) ) ;
#93 = ORIENTED_EDGE ( 'NONE', *, *, #248, .T. ) ;
#94 = DIRECTION ( 'NONE',  ( 0.000000000000000000, 0.000000000000000000, 1.000000000000000000 ) ) ;
#95 = AXIS2_PLACEMENT_3D ( 'NONE', #135, #158, #36 ) ;
#96 = ORIENTED_EDGE ( 'NONE', *, *, #139, .F. ) ;
#97 = FACE_OUTER_BOUND ( 'NONE', #46, .T. ) ;
#98 = CIRCLE ( 'NONE', #221, 16.00000000000000000 ) ;
#99 = CARTESIAN_POINT ( 'NONE',  ( -12.50000000000000000, 0.000000000000000000, 10.19999999999998685 ) ) ;
#100 = FACE_OUTER_BOUND ( 'NONE', #106, .T. ) ;
#101 = CARTESIAN_POINT ( 'NONE',  ( 12.70000000000000107, 0.000000000000000000, 9.999999999999992895 ) ) ;
#102 = CARTESIAN_POINT ( 'NONE',  ( 16.00000000000000000, 1.959434878635765131E-15, 10.00000000000000000 ) ) ;
#103 = COORDINATED_UNIVERSAL_TIME_OFFSET ( 1, 0, .AHEAD. ) ;
#104 = PRODUCT_DEFINITION_FORMATION_WITH_SPECIFIED_SOURCE ( 'LIBOVOLNÝ', '', #125, .NOT_KNOWN. ) ;
#105 = MECHANICAL_CONTEXT ( 'NONE', #68, 'mechanical' ) ;
#106 = EDGE_LOOP ( 'NONE', ( #212, #18, #114, #210 ) ) ;
#107 = DIRECTION ( 'NONE',  ( 1.000000000000000000, 0.000000000000000000, -0.000000000000000000 ) ) ;
#108 = CIRCLE ( 'NONE', #237, 12.50000000000000000 ) ;
#109 = FACE_OUTER_BOUND ( 'NONE', #304, .T. ) ;
#110 = DIRECTION ( 'NONE',  ( -1.000000000000000000, 0.000000000000000000, 0.000000000000000000 ) ) ;
#111 = VERTEX_POINT ( 'NONE', #172 ) ;
#112 = VERTEX_POINT ( 'NONE', #292 ) ;
#113 = CC_DESIGN_PERSON_AND_ORGANIZATION_ASSIGNMENT ( #54, #263, ( #104 ) ) ;
#114 = ORIENTED_EDGE ( 'NONE', *, *, #146, .T. ) ;
#115 = AXIS2_PLACEMENT_3D ( 'NONE', #9, #289, #77 ) ;
#116 = APPROVAL_PERSON_ORGANIZATION ( #302, #84, #251 ) ;
#117 = ORIENTED_EDGE ( 'NONE', *, *, #63, .T. ) ;
#118 = CARTESIAN_POINT ( 'NONE',  ( 0.000000000000000000, 0.000000000000000000, 10.00000000000000000 ) ) ;
#119 = EDGE_CURVE ( 'NONE', #112, #299, #98, .T. ) ;
#120 = ORIENTED_EDGE ( 'NONE', *, *, #280, .T. ) ;
#121 = PRODUCT_DEFINITION_SHAPE ( 'NONE', 'NONE',  #183 ) ;
#122 = ORGANIZATION ( 'NEURÈENÝ', 'NEURÈENÝ', '' ) ;
#123 = DIRECTION ( 'NONE',  ( 1.000000000000000000, 0.000000000000000000, 0.000000000000000000 ) ) ;
#124 = COORDINATED_UNIVERSAL_TIME_OFFSET ( 1, 0, .AHEAD. ) ;
#125 = PRODUCT ( '6aea', '6aea', '', ( #105 ) ) ;
#126 = CIRCLE ( 'NONE', #138, 16.00000000000000000 ) ;
#127 = DIRECTION ( 'NONE',  ( 1.000000000000000000, 0.000000000000000000, 0.000000000000000000 ) ) ;
#128 = APPROVAL_STATUS ( 'not_yet_approved' ) ;
#129 = DIRECTION ( 'NONE',  ( 1.000000000000000000, 0.000000000000000000, 0.000000000000000000 ) ) ;
#130 = VERTEX_POINT ( 'NONE', #99 ) ;
#131 = CC_DESIGN_PERSON_AND_ORGANIZATION_ASSIGNMENT ( #300, #276, ( #183 ) ) ;
#132 = DIRECTION ( 'NONE',  ( -1.000000000000000000, 1.224646799147353207E-16, 0.000000000000000000 ) ) ;
#133 = APPROVAL_STATUS ( 'not_yet_approved' ) ;
#134 = EDGE_LOOP ( 'NONE', ( #96, #249, #209, #206 ) ) ;
#135 = CARTESIAN_POINT ( 'NONE',  ( 0.000000000000000000, 0.000000000000000000, 10.19999999999998685 ) ) ;
#136 = CALENDAR_DATE ( 2022, 7, 7 ) ;
#137 = CIRCLE ( 'NONE', #257, 0.2000000000000005107 ) ;
#138 = AXIS2_PLACEMENT_3D ( 'NONE', #64, #90, #62 ) ;
#139 = EDGE_CURVE ( 'NONE', #130, #305, #108, .T. ) ;
#140 = EDGE_CURVE ( 'NONE', #130, #227, #137, .T. ) ;
#141 = ORIENTED_EDGE ( 'NONE', *, *, #139, .T. ) ;
#142 = CARTESIAN_POINT ( 'NONE',  ( 0.000000000000000000, 0.000000000000000000, 0.000000000000000000 ) ) ;
#143 = LOCAL_TIME ( 11, 30, 36.00000000000000000, #6 ) ;
#144 = ORIENTED_EDGE ( 'NONE', *, *, #17, .T. ) ;
#145 = DIRECTION ( 'NONE',  ( 0.000000000000000000, 0.000000000000000000, 1.000000000000000000 ) ) ;
#146 = EDGE_CURVE ( 'NONE', #305, #91, #35, .T. ) ;
#147 = CARTESIAN_POINT ( 'NONE',  ( 0.000000000000000000, 0.000000000000000000, 1210.000000000000000 ) ) ;
#148 = DATE_TIME_ROLE ( 'creation_date' ) ;
#149 = CARTESIAN_POINT ( 'NONE',  ( 0.000000000000000000, 0.000000000000000000, 0.000000000000000000 ) ) ;
#150 = VECTOR ( 'NONE', #196, 1000.000000000000000 ) ;
#151 = COORDINATED_UNIVERSAL_TIME_OFFSET ( 1, 0, .AHEAD. ) ;
#152 = DIRECTION ( 'NONE',  ( -1.000000000000000000, 0.000000000000000000, 0.000000000000000000 ) ) ;
#153 = ORIENTED_EDGE ( 'NONE', *, *, #215, .F. ) ;
#154 = PERSON_AND_ORGANIZATION ( #45, #122 ) ;
#155 = ORIENTED_EDGE ( 'NONE', *, *, #63, .F. ) ;
#156 = PLANE ( 'NONE',  #264 ) ;
#157 = APPROVAL_STATUS ( 'not_yet_approved' ) ;
#158 = DIRECTION ( 'NONE',  ( 0.000000000000000000, 0.000000000000000000, 1.000000000000000000 ) ) ;
#159 = LINE ( 'NONE', #254, #253 ) ;
#160 = DIRECTION ( 'NONE',  ( -0.000000000000000000, -0.000000000000000000, -1.000000000000000000 ) ) ;
#161 = FACE_OUTER_BOUND ( 'NONE', #279, .T. ) ;
#162 = CLOSED_SHELL ( 'NONE', ( #259, #228, #166, #291, #47, #40, #24, #303, #278 ) ) ;
#163 = LINE ( 'NONE', #260, #192 ) ;
#164 = CC_DESIGN_PERSON_AND_ORGANIZATION_ASSIGNMENT ( #10, #78, ( #104 ) ) ;
#165 = AXIS2_PLACEMENT_3D ( 'NONE', #74, #25, #49 ) ;
#166 = ADVANCED_FACE ( 'NONE', ( #76 ), #217, .T. ) ;
#167 = DIRECTION ( 'NONE',  ( 0.000000000000000000, 0.000000000000000000, 1.000000000000000000 ) ) ;
#168 = CARTESIAN_POINT ( 'NONE',  ( 0.000000000000000000, 0.000000000000000000, 10.19999999999998685 ) ) ;
#169 = CARTESIAN_POINT ( 'NONE',  ( 0.000000000000000000, 0.000000000000000000, 10.00000000000000000 ) ) ;
#170 = CALENDAR_DATE ( 2022, 7, 7 ) ;
#171 = AXIS2_PLACEMENT_3D ( 'NONE', #2, #269, #288 ) ;
#172 = CARTESIAN_POINT ( 'NONE',  ( 12.50000000000000000, 1.530808498934191521E-15, 1210.000000000000000 ) ) ;
#173 = ORIENTED_EDGE ( 'NONE', *, *, #3, .T. ) ;
#174 = UNCERTAINTY_MEASURE_WITH_UNIT (LENGTH_MEASURE( 1.000000000000000082E-05 ), #58, 'distance_accuracy_value', 'NONE');
#175 = CALENDAR_DATE ( 2022, 7, 7 ) ;
#176 = CYLINDRICAL_SURFACE ( 'NONE', #270, 16.00000000000000000 ) ;
#177 = CARTESIAN_POINT ( 'NONE',  ( -16.00000000000000000, 0.000000000000000000, 0.000000000000000000 ) ) ;
#178 = AXIS2_PLACEMENT_3D ( 'NONE', #118, #94, #285 ) ;
#179 =( NAMED_UNIT ( * ) PLANE_ANGLE_UNIT ( ) SI_UNIT ( $, .RADIAN. ) );
#180 = SECURITY_CLASSIFICATION ( '', '', #293 ) ;
#181 = DIRECTION ( 'NONE',  ( 1.000000000000000000, 0.000000000000000000, 0.000000000000000000 ) ) ;
#182 = APPROVAL ( #133, 'NEURÈENÝ' ) ;
#183 = PRODUCT_DEFINITION ( 'NEZNÁMÝ', '', #104, #71 ) ;
#184 = DIRECTION ( 'NONE',  ( 1.000000000000000000, 0.000000000000000000, 0.000000000000000000 ) ) ;
#185 = EDGE_LOOP ( 'NONE', ( #208, #188 ) ) ;
#186 = DIRECTION ( 'NONE',  ( -0.000000000000000000, -0.000000000000000000, -1.000000000000000000 ) ) ;
#187 = ORIENTED_EDGE ( 'NONE', *, *, #243, .T. ) ;
#188 = ORIENTED_EDGE ( 'NONE', *, *, #255, .F. ) ;
#189 = AXIS2_PLACEMENT_3D ( 'NONE', #246, #244, #193 ) ;
#190 = CC_DESIGN_PERSON_AND_ORGANIZATION_ASSIGNMENT ( #154, #26, ( #180 ) ) ;
#191 = CYLINDRICAL_SURFACE ( 'NONE', #80, 12.50000000000000000 ) ;
#192 = VECTOR ( 'NONE', #22, 1000.000000000000000 ) ;
#193 = DIRECTION ( 'NONE',  ( 1.000000000000000000, 0.000000000000000000, 0.000000000000000000 ) ) ;
#194 = CARTESIAN_POINT ( 'NONE',  ( 0.000000000000000000, 0.000000000000000000, 10.00000000000000000 ) ) ;
#195 = DIRECTION ( 'NONE',  ( 0.000000000000000000, 0.000000000000000000, 1.000000000000000000 ) ) ;
#196 = DIRECTION ( 'NONE',  ( -0.000000000000000000, -0.000000000000000000, -1.000000000000000000 ) ) ;
#197 = EDGE_LOOP ( 'NONE', ( #81, #294 ) ) ;
#198 = ORIENTED_EDGE ( 'NONE', *, *, #232, .T. ) ;
#199 = CC_DESIGN_DATE_AND_TIME_ASSIGNMENT ( #28, #33, ( #180 ) ) ;
#200 = CARTESIAN_POINT ( 'NONE',  ( 0.000000000000000000, 0.000000000000000000, 0.000000000000000000 ) ) ;
#201 = AXIS2_PLACEMENT_3D ( 'NONE', #307, #145, #184 ) ;
#202 =( NAMED_UNIT ( * ) SI_UNIT ( $, .STERADIAN. ) SOLID_ANGLE_UNIT ( ) );
#203 = EDGE_CURVE ( 'NONE', #111, #298, #284, .T. ) ;
#204 = CC_DESIGN_SECURITY_CLASSIFICATION ( #180, ( #104 ) ) ;
#205 = ORIENTED_EDGE ( 'NONE', *, *, #23, .T. ) ;
#206 = ORIENTED_EDGE ( 'NONE', *, *, #146, .F. ) ;
#207 = CIRCLE ( 'NONE', #52, 16.00000000000000000 ) ;
#208 = ORIENTED_EDGE ( 'NONE', *, *, #243, .F. ) ;
#209 = ORIENTED_EDGE ( 'NONE', *, *, #232, .F. ) ;
#210 = ORIENTED_EDGE ( 'NONE', *, *, #248, .F. ) ;
#211 = ADVANCED_BREP_SHAPE_REPRESENTATION ( '6aea', ( #236, #37 ), #216 ) ;
#212 = ORIENTED_EDGE ( 'NONE', *, *, #140, .F. ) ;
#213 = AXIS2_PLACEMENT_3D ( 'NONE', #282, #160, #306 ) ;
#214 = APPROVAL ( #128, 'NEURÈENÝ' ) ;
#215 = EDGE_CURVE ( 'NONE', #299, #57, #225, .T. ) ;
#216 =( GEOMETRIC_REPRESENTATION_CONTEXT ( 3 ) GLOBAL_UNCERTAINTY_ASSIGNED_CONTEXT ( ( #174 ) ) GLOBAL_UNIT_ASSIGNED_CONTEXT ( ( #58, #179, #202 ) ) REPRESENTATION_CONTEXT ( 'NONE', 'WORKASPACE' ) );
#217 = CYLINDRICAL_SURFACE ( 'NONE', #87, 16.00000000000000000 ) ;
#218 = PERSON_AND_ORGANIZATION ( #45, #122 ) ;
#219 = CARTESIAN_POINT ( 'NONE',  ( 0.000000000000000000, 0.000000000000000000, 10.00000000000000000 ) ) ;
#220 = SHAPE_DEFINITION_REPRESENTATION ( #121, #211 ) ;
#221 = AXIS2_PLACEMENT_3D ( 'NONE', #194, #247, #129 ) ;
#222 = FACE_OUTER_BOUND ( 'NONE', #134, .T. ) ;
#223 = DATE_AND_TIME ( #170, #55 ) ;
#224 = CARTESIAN_POINT ( 'NONE',  ( -12.70000000000000107, 1.555301434917138630E-15, 10.19999999999998685 ) ) ;
#225 = LINE ( 'NONE', #102, #150 ) ;
#226 = DATE_AND_TIME ( #175, #239 ) ;
#227 = VERTEX_POINT ( 'NONE', #11 ) ;
#228 = ADVANCED_FACE ( 'NONE', ( #97 ), #191, .T. ) ;
#229 = EDGE_CURVE ( 'NONE', #298, #111, #16, .T. ) ;
#230 = CARTESIAN_POINT ( 'NONE',  ( 12.50000000000000000, 1.530808498934191521E-15, 10.19999999999998685 ) ) ;
#231 = DATE_AND_TIME ( #136, #61 ) ;
#232 = EDGE_CURVE ( 'NONE', #91, #227, #261, .T. ) ;
#233 = AXIS2_PLACEMENT_3D ( 'NONE', #219, #4, #265 ) ;
#234 = FACE_OUTER_BOUND ( 'NONE', #197, .T. ) ;
#235 = LINE ( 'NONE', #92, #268 ) ;
#236 = MANIFOLD_SOLID_BREP ( 'Zaoblit1', #162 ) ;
#237 = AXIS2_PLACEMENT_3D ( 'NONE', #168, #195, #262 ) ;
#238 = DIRECTION ( 'NONE',  ( 0.000000000000000000, 0.000000000000000000, 1.000000000000000000 ) ) ;
#239 = LOCAL_TIME ( 11, 30, 36.00000000000000000, #151 ) ;
#240 = FACE_OUTER_BOUND ( 'NONE', #1, .T. ) ;
#241 = FACE_BOUND ( 'NONE', #65, .T. ) ;
#242 = CC_DESIGN_DATE_AND_TIME_ASSIGNMENT ( #226, #148, ( #183 ) ) ;
#243 = EDGE_CURVE ( 'NONE', #283, #57, #207, .T. ) ;
#244 = DIRECTION ( 'NONE',  ( 0.000000000000000000, 0.000000000000000000, 1.000000000000000000 ) ) ;
#245 = DIRECTION ( 'NONE',  ( 0.000000000000000000, 0.000000000000000000, 1.000000000000000000 ) ) ;
#246 = CARTESIAN_POINT ( 'NONE',  ( 0.000000000000000000, 0.000000000000000000, 1210.000000000000000 ) ) ;
#247 = DIRECTION ( 'NONE',  ( 0.000000000000000000, 0.000000000000000000, 1.000000000000000000 ) ) ;
#248 = EDGE_CURVE ( 'NONE', #227, #91, #43, .T. ) ;
#249 = ORIENTED_EDGE ( 'NONE', *, *, #140, .T. ) ;
#250 = TOROIDAL_SURFACE ( 'NONE', #115, 12.70000000000000107, 0.2000000000000000111 ) ;
#251 = APPROVAL_ROLE ( '' ) ;
#252 = APPROVAL_DATE_TIME ( #231, #84 ) ;
#253 = VECTOR ( 'NONE', #186, 1000.000000000000000 ) ;
#254 = CARTESIAN_POINT ( 'NONE',  ( -12.50000000000000000, 0.000000000000000000, 1210.000000000000000 ) ) ;
#255 = EDGE_CURVE ( 'NONE', #57, #283, #73, .T. ) ;
#256 = PLANE ( 'NONE',  #19 ) ;
#257 = AXIS2_PLACEMENT_3D ( 'NONE', #224, #79, #132 ) ;
#258 = DIRECTION ( 'NONE',  ( 1.000000000000000000, 0.000000000000000000, -0.000000000000000000 ) ) ;
#259 = ADVANCED_FACE ( 'NONE', ( #222 ), #250, .F. ) ;
#260 = CARTESIAN_POINT ( 'NONE',  ( 12.50000000000000000, 1.530808498934191521E-15, 1210.000000000000000 ) ) ;
#261 = CIRCLE ( 'NONE', #165, 12.70000000000000107 ) ;
#262 = DIRECTION ( 'NONE',  ( 1.000000000000000000, 0.000000000000000000, 0.000000000000000000 ) ) ;
#263 = PERSON_AND_ORGANIZATION_ROLE ( 'design_supplier' ) ;
#264 = AXIS2_PLACEMENT_3D ( 'NONE', #15, #66, #107 ) ;
#265 = DIRECTION ( 'NONE',  ( 1.000000000000000000, 0.000000000000000000, 0.000000000000000000 ) ) ;
#266 = DIRECTION ( 'NONE',  ( -0.000000000000000000, -0.000000000000000000, -1.000000000000000000 ) ) ;
#267 = APPROVAL_DATE_TIME ( #75, #214 ) ;
#268 = VECTOR ( 'NONE', #67, 1000.000000000000000 ) ;
#269 = DIRECTION ( 'NONE',  ( 0.000000000000000000, -1.000000000000000000, 0.000000000000000000 ) ) ;
#270 = AXIS2_PLACEMENT_3D ( 'NONE', #272, #86, #110 ) ;
#271 = ORIENTED_EDGE ( 'NONE', *, *, #280, .F. ) ;
#272 = CARTESIAN_POINT ( 'NONE',  ( 0.000000000000000000, 0.000000000000000000, 10.00000000000000000 ) ) ;
#273 = CARTESIAN_POINT ( 'NONE',  ( 16.00000000000000000, 1.959434878635765131E-15, 10.00000000000000000 ) ) ;
#274 = AXIS2_PLACEMENT_3D ( 'NONE', #149, #245, #127 ) ;
#275 = APPROVAL_PERSON_ORGANIZATION ( #218, #214, #290 ) ;
#276 = PERSON_AND_ORGANIZATION_ROLE ( 'creator' ) ;
#277 = APPLICATION_PROTOCOL_DEFINITION ( 'international standard', 'config_control_design', 1994, #14 ) ;
#278 = ADVANCED_FACE ( 'NONE', ( #100 ), #287, .F. ) ;
#279 = EDGE_LOOP ( 'NONE', ( #155, #70, #205, #141 ) ) ;
#280 = EDGE_CURVE ( 'NONE', #299, #112, #126, .T. ) ;
#281 = EDGE_LOOP ( 'NONE', ( #271, #34, #60, #296 ) ) ;
#282 = CARTESIAN_POINT ( 'NONE',  ( 0.000000000000000000, 0.000000000000000000, 1210.000000000000000 ) ) ;
#283 = VERTEX_POINT ( 'NONE', #177 ) ;
#284 = CIRCLE ( 'NONE', #5, 12.50000000000000000 ) ;
#285 = DIRECTION ( 'NONE',  ( 1.000000000000000000, 0.000000000000000000, -0.000000000000000000 ) ) ;
#286 = DIRECTION ( 'NONE',  ( -1.000000000000000000, 0.000000000000000000, 0.000000000000000000 ) ) ;
#287 = TOROIDAL_SURFACE ( 'NONE', #95, 12.70000000000000107, 0.2000000000000000111 ) ;
#288 = DIRECTION ( 'NONE',  ( 0.000000000000000000, 0.000000000000000000, -1.000000000000000000 ) ) ;
#289 = DIRECTION ( 'NONE',  ( 0.000000000000000000, 0.000000000000000000, 1.000000000000000000 ) ) ;
#290 = APPROVAL_ROLE ( '' ) ;
#291 = ADVANCED_FACE ( 'NONE', ( #109 ), #176, .T. ) ;
#292 = CARTESIAN_POINT ( 'NONE',  ( -16.00000000000000000, 0.000000000000000000, 10.00000000000000000 ) ) ;
#293 = SECURITY_CLASSIFICATION_LEVEL ( 'unclassified' ) ;
#294 = ORIENTED_EDGE ( 'NONE', *, *, #203, .T. ) ;
#295 = PERSON_AND_ORGANIZATION ( #45, #122 ) ;
#296 = ORIENTED_EDGE ( 'NONE', *, *, #17, .F. ) ;
#297 = CC_DESIGN_APPROVAL ( #84, ( #183 ) ) ;
#298 = VERTEX_POINT ( 'NONE', #39 ) ;
#299 = VERTEX_POINT ( 'NONE', #273 ) ;
#300 = PERSON_AND_ORGANIZATION ( #45, #122 ) ;
#301 = PERSON_AND_ORGANIZATION ( #45, #122 ) ;
#302 = PERSON_AND_ORGANIZATION ( #45, #122 ) ;
#303 = ADVANCED_FACE ( 'NONE', ( #234 ), #156, .T. ) ;
#304 = EDGE_LOOP ( 'NONE', ( #153, #41, #144, #187 ) ) ;
#305 = VERTEX_POINT ( 'NONE', #230 ) ;
#306 = DIRECTION ( 'NONE',  ( -1.000000000000000000, 0.000000000000000000, 0.000000000000000000 ) ) ;
#307 = CARTESIAN_POINT ( 'NONE',  ( 0.000000000000000000, 0.000000000000000000, 10.19999999999998685 ) ) ;
ENDSEC;
END-ISO-10303-21;
