ISO-10303-21;
HEADER;
FILE_DESCRIPTION (( 'STEP AP203' ),
    '1' );
FILE_NAME ('9742.STEP',
    '2022-07-07T09:45:04',
    ( '' ),
    ( '' ),
    'SwSTEP 2.0',
    'SolidWorks 2019',
    '' );
FILE_SCHEMA (( 'CONFIG_CONTROL_DESIGN' ));
ENDSEC;

DATA;
#1 = CALENDAR_DATE ( 2022, 7, 7 ) ;
#2 = DATE_TIME_ROLE ( 'creation_date' ) ;
#3 = EDGE_CURVE ( 'NONE', #109, #83, #11, .T. ) ;
#4 = DIRECTION ( 'NONE',  ( 0.000000000000000000, 0.000000000000000000, 1.000000000000000000 ) ) ;
#5 = CC_DESIGN_DATE_AND_TIME_ASSIGNMENT ( #95, #45, ( #25 ) ) ;
#6 = CARTESIAN_POINT ( 'NONE',  ( 0.000000000000000000, 0.000000000000000000, 7.000000000000000000 ) ) ;
#7 = EDGE_CURVE ( 'NONE', #83, #123, #120, .T. ) ;
#8 = CIRCLE ( 'NONE', #31, 9.000000000000000000 ) ;
#9 = CARTESIAN_POINT ( 'NONE',  ( 6.099999999999999645, 7.470345474798854293E-16, 167.0000000000000000 ) ) ;
#10 = ORIENTED_EDGE ( 'NONE', *, *, #107, .F. ) ;
#11 = LINE ( 'NONE', #291, #79 ) ;
#12 = ORIENTED_EDGE ( 'NONE', *, *, #266, .F. ) ;
#13 = CARTESIAN_POINT ( 'NONE',  ( 0.000000000000000000, 0.000000000000000000, 7.200000000000011724 ) ) ;
#14 = CARTESIAN_POINT ( 'NONE',  ( 0.000000000000000000, 0.000000000000000000, 7.000000000000000000 ) ) ;
#15 = EDGE_LOOP ( 'NONE', ( #111, #157 ) ) ;
#16 = FACE_OUTER_BOUND ( 'NONE', #178, .T. ) ;
#17 = AXIS2_PLACEMENT_3D ( 'NONE', #84, #270, #235 ) ;
#18 = DIRECTION ( 'NONE',  ( 0.000000000000000000, 0.000000000000000000, 1.000000000000000000 ) ) ;
#19 = LOCAL_TIME ( 11, 45, 4.000000000000000000, #26 ) ;
#20 = DIRECTION ( 'NONE',  ( 1.000000000000000000, 0.000000000000000000, -0.000000000000000000 ) ) ;
#21 = CARTESIAN_POINT ( 'NONE',  ( -9.000000000000000000, 0.000000000000000000, 0.000000000000000000 ) ) ;
#22 = COORDINATED_UNIVERSAL_TIME_OFFSET ( 1, 0, .AHEAD. ) ;
#23 = CARTESIAN_POINT ( 'NONE',  ( 9.000000000000000000, 1.102182119232617714E-15, 0.000000000000000000 ) ) ;
#24 = CIRCLE ( 'NONE', #273, 6.299999999999998934 ) ;
#25 = SECURITY_CLASSIFICATION ( '', '', #259 ) ;
#26 = COORDINATED_UNIVERSAL_TIME_OFFSET ( 1, 0, .AHEAD. ) ;
#27 = PERSON_AND_ORGANIZATION ( #249, #299 ) ;
#28 = VECTOR ( 'NONE', #233, 1000.000000000000000 ) ;
#29 = CARTESIAN_POINT ( 'NONE',  ( 0.000000000000000000, 0.000000000000000000, 167.0000000000000000 ) ) ;
#30 = DIRECTION ( 'NONE',  ( 0.000000000000000000, 0.000000000000000000, 1.000000000000000000 ) ) ;
#31 = AXIS2_PLACEMENT_3D ( 'NONE', #14, #108, #110 ) ;
#32 = DIRECTION ( 'NONE',  ( -0.000000000000000000, -0.000000000000000000, -1.000000000000000000 ) ) ;
#33 = EDGE_LOOP ( 'NONE', ( #89, #129, #88, #211 ) ) ;
#34 = EDGE_LOOP ( 'NONE', ( #205, #152 ) ) ;
#35 = EDGE_LOOP ( 'NONE', ( #247, #10, #180, #225 ) ) ;
#36 = AXIS2_PLACEMENT_3D ( 'NONE', #6, #127, #290 ) ;
#37 = ADVANCED_FACE ( 'NONE', ( #130 ), #286, .F. ) ;
#38 = CARTESIAN_POINT ( 'NONE',  ( 0.000000000000000000, 0.000000000000000000, 7.000000000000000000 ) ) ;
#39 = CARTESIAN_POINT ( 'NONE',  ( 6.099999999999999645, 7.470345474798854293E-16, 7.200000000000011724 ) ) ;
#40 = DIRECTION ( 'NONE',  ( 0.000000000000000000, 0.000000000000000000, 1.000000000000000000 ) ) ;
#41 = MANIFOLD_SOLID_BREP ( 'Zaoblit1', #228 ) ;
#42 = CIRCLE ( 'NONE', #218, 6.099999999999999645 ) ;
#43 = DIRECTION ( 'NONE',  ( 0.000000000000000000, 0.000000000000000000, 1.000000000000000000 ) ) ;
#44 = EDGE_CURVE ( 'NONE', #57, #53, #24, .T. ) ;
#45 = DATE_TIME_ROLE ( 'classification_date' ) ;
#46 = CARTESIAN_POINT ( 'NONE',  ( 0.000000000000000000, 0.000000000000000000, 167.0000000000000000 ) ) ;
#47 = ADVANCED_FACE ( 'NONE', ( #16 ), #150, .T. ) ;
#48 = CC_DESIGN_PERSON_AND_ORGANIZATION_ASSIGNMENT ( #116, #194, ( #25 ) ) ;
#49 = CALENDAR_DATE ( 2022, 7, 7 ) ;
#50 = CIRCLE ( 'NONE', #133, 6.099999999999999645 ) ;
#51 = APPLICATION_CONTEXT ( 'configuration controlled 3d designs of mechanical parts and assemblies' ) ;
#52 =( NAMED_UNIT ( * ) PLANE_ANGLE_UNIT ( ) SI_UNIT ( $, .RADIAN. ) );
#53 = VERTEX_POINT ( 'NONE', #86 ) ;
#54 = CIRCLE ( 'NONE', #147, 6.099999999999999645 ) ;
#55 = EDGE_CURVE ( 'NONE', #206, #57, #162, .T. ) ;
#56 = ORIENTED_EDGE ( 'NONE', *, *, #287, .F. ) ;
#57 = VERTEX_POINT ( 'NONE', #298 ) ;
#58 = LOCAL_TIME ( 11, 45, 4.000000000000000000, #280 ) ;
#59 = DIRECTION ( 'NONE',  ( -1.000000000000000000, 0.000000000000000000, 0.000000000000000000 ) ) ;
#60 = ORIENTED_EDGE ( 'NONE', *, *, #237, .F. ) ;
#61 = EDGE_LOOP ( 'NONE', ( #112, #208 ) ) ;
#62 = EDGE_CURVE ( 'NONE', #123, #83, #63, .T. ) ;
#63 = CIRCLE ( 'NONE', #128, 9.000000000000000000 ) ;
#64 = ORIENTED_EDGE ( 'NONE', *, *, #276, .T. ) ;
#65 = FACE_OUTER_BOUND ( 'NONE', #61, .T. ) ;
#66 = LINE ( 'NONE', #161, #87 ) ;
#67 = EDGE_CURVE ( 'NONE', #222, #109, #8, .T. ) ;
#68 = CARTESIAN_POINT ( 'NONE',  ( -6.299999999999998934, 7.715274834628324392E-16, 7.200000000000011724 ) ) ;
#69 = DIRECTION ( 'NONE',  ( 1.000000000000000000, 0.000000000000000000, -0.000000000000000000 ) ) ;
#70 = PERSON_AND_ORGANIZATION ( #249, #299 ) ;
#71 = CALENDAR_DATE ( 2022, 7, 7 ) ;
#72 = EDGE_CURVE ( 'NONE', #53, #57, #281, .T. ) ;
#73 = PERSON_AND_ORGANIZATION ( #249, #299 ) ;
#74 = CIRCLE ( 'NONE', #229, 0.1999999999999996503 ) ;
#75 = APPROVAL_PERSON_ORGANIZATION ( #304, #245, #193 ) ;
#76 = CALENDAR_DATE ( 2022, 7, 7 ) ;
#77 = DIRECTION ( 'NONE',  ( 1.000000000000000000, 0.000000000000000000, 0.000000000000000000 ) ) ;
#78 = MECHANICAL_CONTEXT ( 'NONE', #151, 'mechanical' ) ;
#79 = VECTOR ( 'NONE', #246, 1000.000000000000000 ) ;
#80 = AXIS2_PLACEMENT_3D ( 'NONE', #201, #197, #77 ) ;
#81 = CARTESIAN_POINT ( 'NONE',  ( 0.000000000000000000, 0.000000000000000000, 167.0000000000000000 ) ) ;
#82 = ADVANCED_FACE ( 'NONE', ( #65 ), #191, .T. ) ;
#83 = VERTEX_POINT ( 'NONE', #23 ) ;
#84 = CARTESIAN_POINT ( 'NONE',  ( 0.000000000000000000, 0.000000000000000000, 7.000000000000000000 ) ) ;
#85 = ORIENTED_EDGE ( 'NONE', *, *, #3, .F. ) ;
#86 = CARTESIAN_POINT ( 'NONE',  ( -6.299999999999998934, 7.715274834628324392E-16, 7.000000000000006217 ) ) ;
#87 = VECTOR ( 'NONE', #256, 1000.000000000000000 ) ;
#88 = ORIENTED_EDGE ( 'NONE', *, *, #237, .T. ) ;
#89 = ORIENTED_EDGE ( 'NONE', *, *, #155, .F. ) ;
#90 = CARTESIAN_POINT ( 'NONE',  ( 9.000000000000000000, 1.102182119232617714E-15, 7.000000000000000000 ) ) ;
#91 = DIRECTION ( 'NONE',  ( 1.000000000000000000, 0.000000000000000000, 0.000000000000000000 ) ) ;
#92 = APPROVAL ( #170, 'NEURÈENÝ' ) ;
#93 = LINE ( 'NONE', #160, #28 ) ;
#94 = PRODUCT ( '9742', '9742', '', ( #78 ) ) ;
#95 = DATE_AND_TIME ( #264, #252 ) ;
#96 = AXIS2_PLACEMENT_3D ( 'NONE', #158, #243, #154 ) ;
#97 = DIRECTION ( 'NONE',  ( -1.000000000000000000, 0.000000000000000000, 0.000000000000000000 ) ) ;
#98 = AXIS2_PLACEMENT_3D ( 'NONE', #104, #125, #121 ) ;
#99 = PRODUCT_DEFINITION_FORMATION_WITH_SPECIFIED_SOURCE ( 'LIBOVOLNÝ', '', #94, .NOT_KNOWN. ) ;
#100 = APPROVAL_ROLE ( '' ) ;
#101 = PERSON_AND_ORGANIZATION_ROLE ( 'design_supplier' ) ;
#102 = AXIS2_PLACEMENT_3D ( 'NONE', #254, #43, #69 ) ;
#103 = FACE_OUTER_BOUND ( 'NONE', #269, .T. ) ;
#104 = CARTESIAN_POINT ( 'NONE',  ( 0.000000000000000000, 0.000000000000000000, 167.0000000000000000 ) ) ;
#105 = PERSON_AND_ORGANIZATION ( #249, #299 ) ;
#106 = CC_DESIGN_APPROVAL ( #245, ( #25 ) ) ;
#107 = EDGE_CURVE ( 'NONE', #206, #210, #54, .T. ) ;
#108 = DIRECTION ( 'NONE',  ( 0.000000000000000000, 0.000000000000000000, 1.000000000000000000 ) ) ;
#109 = VERTEX_POINT ( 'NONE', #90 ) ;
#110 = DIRECTION ( 'NONE',  ( 1.000000000000000000, 0.000000000000000000, 0.000000000000000000 ) ) ;
#111 = ORIENTED_EDGE ( 'NONE', *, *, #67, .T. ) ;
#112 = ORIENTED_EDGE ( 'NONE', *, *, #255, .T. ) ;
#113 = CARTESIAN_POINT ( 'NONE',  ( -6.099999999999999645, 0.000000000000000000, 7.200000000000011724 ) ) ;
#114 =( GEOMETRIC_REPRESENTATION_CONTEXT ( 3 ) GLOBAL_UNCERTAINTY_ASSIGNED_CONTEXT ( ( #183 ) ) GLOBAL_UNIT_ASSIGNED_CONTEXT ( ( #172, #52, #242 ) ) REPRESENTATION_CONTEXT ( 'NONE', 'WORKASPACE' ) );
#115 = DIRECTION ( 'NONE',  ( 1.224646799147353207E-16, 1.000000000000000000, -0.000000000000000000 ) ) ;
#116 = PERSON_AND_ORGANIZATION ( #249, #299 ) ;
#117 = PLANE ( 'NONE',  #293 ) ;
#118 = ADVANCED_FACE ( 'NONE', ( #136 ), #279, .T. ) ;
#119 = DATE_AND_TIME ( #1, #19 ) ;
#120 = CIRCLE ( 'NONE', #96, 9.000000000000000000 ) ;
#121 = DIRECTION ( 'NONE',  ( -1.000000000000000000, 0.000000000000000000, 0.000000000000000000 ) ) ;
#122 = CC_DESIGN_PERSON_AND_ORGANIZATION_ASSIGNMENT ( #70, #139, ( #99 ) ) ;
#123 = VERTEX_POINT ( 'NONE', #21 ) ;
#124 = DIRECTION ( 'NONE',  ( 0.000000000000000000, 0.000000000000000000, 1.000000000000000000 ) ) ;
#125 = DIRECTION ( 'NONE',  ( -0.000000000000000000, -0.000000000000000000, -1.000000000000000000 ) ) ;
#126 = ADVANCED_FACE ( 'NONE', ( #258 ), #277, .T. ) ;
#127 = DIRECTION ( 'NONE',  ( 0.000000000000000000, 0.000000000000000000, 1.000000000000000000 ) ) ;
#128 = AXIS2_PLACEMENT_3D ( 'NONE', #177, #267, #224 ) ;
#129 = ORIENTED_EDGE ( 'NONE', *, *, #255, .F. ) ;
#130 = FACE_OUTER_BOUND ( 'NONE', #35, .T. ) ;
#131 = CARTESIAN_POINT ( 'NONE',  ( 0.000000000000000000, 0.000000000000000000, 7.000000000000000000 ) ) ;
#132 = ADVANCED_FACE ( 'NONE', ( #230 ), #117, .F. ) ;
#133 = AXIS2_PLACEMENT_3D ( 'NONE', #81, #30, #200 ) ;
#134 = ORIENTED_EDGE ( 'NONE', *, *, #3, .T. ) ;
#135 = DIRECTION ( 'NONE',  ( 0.000000000000000000, -1.000000000000000000, 0.000000000000000000 ) ) ;
#136 = FACE_OUTER_BOUND ( 'NONE', #33, .T. ) ;
#137 = CARTESIAN_POINT ( 'NONE',  ( 0.000000000000000000, 0.000000000000000000, 7.000000000000000000 ) ) ;
#138 = DIRECTION ( 'NONE',  ( 1.000000000000000000, 0.000000000000000000, 0.000000000000000000 ) ) ;
#139 = PERSON_AND_ORGANIZATION_ROLE ( 'creator' ) ;
#140 = DIRECTION ( 'NONE',  ( 1.000000000000000000, 0.000000000000000000, -0.000000000000000000 ) ) ;
#141 = APPROVAL_DATE_TIME ( #192, #245 ) ;
#142 = APPROVAL_STATUS ( 'not_yet_approved' ) ;
#143 = DESIGN_CONTEXT ( 'detailed design', #51, 'design' ) ;
#144 = COORDINATED_UNIVERSAL_TIME_OFFSET ( 1, 0, .AHEAD. ) ;
#145 = CC_DESIGN_PERSON_AND_ORGANIZATION_ASSIGNMENT ( #105, #288, ( #94 ) ) ;
#146 = DIRECTION ( 'NONE',  ( 1.000000000000000000, 0.000000000000000000, 0.000000000000000000 ) ) ;
#147 = AXIS2_PLACEMENT_3D ( 'NONE', #168, #163, #91 ) ;
#148 = APPROVAL_PERSON_ORGANIZATION ( #282, #179, #100 ) ;
#149 = EDGE_CURVE ( 'NONE', #210, #53, #74, .T. ) ;
#150 = CYLINDRICAL_SURFACE ( 'NONE', #204, 9.000000000000000000 ) ;
#151 = APPLICATION_CONTEXT ( 'configuration controlled 3d designs of mechanical parts and assemblies' ) ;
#152 = ORIENTED_EDGE ( 'NONE', *, *, #72, .T. ) ;
#153 = ORIENTED_EDGE ( 'NONE', *, *, #7, .F. ) ;
#154 = DIRECTION ( 'NONE',  ( 1.000000000000000000, 0.000000000000000000, 0.000000000000000000 ) ) ;
#155 = EDGE_CURVE ( 'NONE', #272, #206, #93, .T. ) ;
#156 = ORIENTED_EDGE ( 'NONE', *, *, #155, .T. ) ;
#157 = ORIENTED_EDGE ( 'NONE', *, *, #287, .T. ) ;
#158 = CARTESIAN_POINT ( 'NONE',  ( 0.000000000000000000, 0.000000000000000000, 0.000000000000000000 ) ) ;
#159 = DIRECTION ( 'NONE',  ( 0.000000000000000000, 0.000000000000000000, 1.000000000000000000 ) ) ;
#160 = CARTESIAN_POINT ( 'NONE',  ( 6.099999999999999645, 7.470345474798854293E-16, 167.0000000000000000 ) ) ;
#161 = CARTESIAN_POINT ( 'NONE',  ( -6.099999999999999645, 0.000000000000000000, 167.0000000000000000 ) ) ;
#162 = CIRCLE ( 'NONE', #268, 0.1999999999999996503 ) ;
#163 = DIRECTION ( 'NONE',  ( 0.000000000000000000, 0.000000000000000000, 1.000000000000000000 ) ) ;
#164 = CIRCLE ( 'NONE', #257, 6.099999999999999645 ) ;
#165 = PERSON_AND_ORGANIZATION ( #249, #299 ) ;
#166 = PRODUCT_DEFINITION_SHAPE ( 'NONE', 'NONE',  #220 ) ;
#167 = LOCAL_TIME ( 11, 45, 4.000000000000000000, #144 ) ;
#168 = CARTESIAN_POINT ( 'NONE',  ( 0.000000000000000000, 0.000000000000000000, 7.200000000000011724 ) ) ;
#169 = COORDINATED_UNIVERSAL_TIME_OFFSET ( 1, 0, .AHEAD. ) ;
#170 = APPROVAL_STATUS ( 'not_yet_approved' ) ;
#171 = APPROVAL_DATE_TIME ( #119, #179 ) ;
#172 =( LENGTH_UNIT ( ) NAMED_UNIT ( * ) SI_UNIT ( .MILLI., .METRE. ) );
#173 = CARTESIAN_POINT ( 'NONE',  ( 0.000000000000000000, 0.000000000000000000, 0.000000000000000000 ) ) ;
#174 = CIRCLE ( 'NONE', #36, 9.000000000000000000 ) ;
#175 = LOCAL_TIME ( 11, 45, 4.000000000000000000, #22 ) ;
#176 = LINE ( 'NONE', #285, #305 ) ;
#177 = CARTESIAN_POINT ( 'NONE',  ( 0.000000000000000000, 0.000000000000000000, 0.000000000000000000 ) ) ;
#178 = EDGE_LOOP ( 'NONE', ( #85, #202, #64, #223 ) ) ;
#179 = APPROVAL ( #142, 'NEURÈENÝ' ) ;
#180 = ORIENTED_EDGE ( 'NONE', *, *, #55, .T. ) ;
#181 = EDGE_LOOP ( 'NONE', ( #274, #203, #207, #251 ) ) ;
#182 = ORIENTED_EDGE ( 'NONE', *, *, #107, .T. ) ;
#183 = UNCERTAINTY_MEASURE_WITH_UNIT (LENGTH_MEASURE( 1.000000000000000082E-05 ), #172, 'distance_accuracy_value', 'NONE');
#184 = DIRECTION ( 'NONE',  ( 1.000000000000000000, 0.000000000000000000, 0.000000000000000000 ) ) ;
#185 = DIRECTION ( 'NONE',  ( -0.000000000000000000, -0.000000000000000000, -1.000000000000000000 ) ) ;
#186 = AXIS2_PLACEMENT_3D ( 'NONE', #173, #124, #265 ) ;
#187 = CC_DESIGN_PERSON_AND_ORGANIZATION_ASSIGNMENT ( #27, #101, ( #99 ) ) ;
#188 = CARTESIAN_POINT ( 'NONE',  ( -9.000000000000000000, 0.000000000000000000, 7.000000000000000000 ) ) ;
#189 = FACE_OUTER_BOUND ( 'NONE', #15, .T. ) ;
#190 = ADVANCED_FACE ( 'NONE', ( #301, #189 ), #212, .T. ) ;
#191 = PLANE ( 'NONE',  #195 ) ;
#192 = DATE_AND_TIME ( #76, #175 ) ;
#193 = APPROVAL_ROLE ( '' ) ;
#194 = PERSON_AND_ORGANIZATION_ROLE ( 'classification_officer' ) ;
#195 = AXIS2_PLACEMENT_3D ( 'NONE', #46, #278, #140 ) ;
#196 = AXIS2_PLACEMENT_3D ( 'NONE', #137, #275, #97 ) ;
#197 = DIRECTION ( 'NONE',  ( 0.000000000000000000, 0.000000000000000000, 1.000000000000000000 ) ) ;
#198 = ADVANCED_BREP_SHAPE_REPRESENTATION ( '9742', ( #41, #186 ), #114 ) ;
#199 = FACE_OUTER_BOUND ( 'NONE', #181, .T. ) ;
#200 = DIRECTION ( 'NONE',  ( 1.000000000000000000, 0.000000000000000000, 0.000000000000000000 ) ) ;
#201 = CARTESIAN_POINT ( 'NONE',  ( 0.000000000000000000, 0.000000000000000000, 7.200000000000011724 ) ) ;
#202 = ORIENTED_EDGE ( 'NONE', *, *, #67, .F. ) ;
#203 = ORIENTED_EDGE ( 'NONE', *, *, #149, .T. ) ;
#204 = AXIS2_PLACEMENT_3D ( 'NONE', #38, #32, #59 ) ;
#205 = ORIENTED_EDGE ( 'NONE', *, *, #44, .T. ) ;
#206 = VERTEX_POINT ( 'NONE', #39 ) ;
#207 = ORIENTED_EDGE ( 'NONE', *, *, #44, .F. ) ;
#208 = ORIENTED_EDGE ( 'NONE', *, *, #266, .T. ) ;
#209 = EDGE_CURVE ( 'NONE', #210, #206, #42, .T. ) ;
#210 = VERTEX_POINT ( 'NONE', #113 ) ;
#211 = ORIENTED_EDGE ( 'NONE', *, *, #209, .T. ) ;
#212 = PLANE ( 'NONE',  #102 ) ;
#213 = CARTESIAN_POINT ( 'NONE',  ( 0.000000000000000000, 0.000000000000000000, 0.000000000000000000 ) ) ;
#214 = DIRECTION ( 'NONE',  ( -1.000000000000000000, 1.224646799147353454E-16, 0.000000000000000000 ) ) ;
#215 = TOROIDAL_SURFACE ( 'NONE', #80, 6.299999999999998934, 0.2000000000000000111 ) ;
#216 = AXIS2_PLACEMENT_3D ( 'NONE', #13, #159, #253 ) ;
#217 = ORIENTED_EDGE ( 'NONE', *, *, #276, .F. ) ;
#218 = AXIS2_PLACEMENT_3D ( 'NONE', #227, #18, #138 ) ;
#219 = CYLINDRICAL_SURFACE ( 'NONE', #98, 6.099999999999999645 ) ;
#220 = PRODUCT_DEFINITION ( 'NEZNÁMÝ', '', #99, #143 ) ;
#221 = VERTEX_POINT ( 'NONE', #300 ) ;
#222 = VERTEX_POINT ( 'NONE', #188 ) ;
#223 = ORIENTED_EDGE ( 'NONE', *, *, #62, .T. ) ;
#224 = DIRECTION ( 'NONE',  ( 1.000000000000000000, 0.000000000000000000, 0.000000000000000000 ) ) ;
#225 = ORIENTED_EDGE ( 'NONE', *, *, #72, .F. ) ;
#226 = DIRECTION ( 'NONE',  ( 0.000000000000000000, 0.000000000000000000, -1.000000000000000000 ) ) ;
#227 = CARTESIAN_POINT ( 'NONE',  ( 0.000000000000000000, 0.000000000000000000, 7.200000000000011724 ) ) ;
#228 = CLOSED_SHELL ( 'NONE', ( #295, #262, #126, #47, #190, #132, #118, #82, #37 ) ) ;
#229 = AXIS2_PLACEMENT_3D ( 'NONE', #68, #115, #214 ) ;
#230 = FACE_OUTER_BOUND ( 'NONE', #250, .T. ) ;
#231 = APPROVAL_PERSON_ORGANIZATION ( #73, #92, #238 ) ;
#232 = CC_DESIGN_DATE_AND_TIME_ASSIGNMENT ( #239, #2, ( #220 ) ) ;
#233 = DIRECTION ( 'NONE',  ( -0.000000000000000000, -0.000000000000000000, -1.000000000000000000 ) ) ;
#234 = APPLICATION_PROTOCOL_DEFINITION ( 'international standard', 'config_control_design', 1994, #51 ) ;
#235 = DIRECTION ( 'NONE',  ( 1.000000000000000000, 0.000000000000000000, 0.000000000000000000 ) ) ;
#236 = PERSON_AND_ORGANIZATION_ROLE ( 'creator' ) ;
#237 = EDGE_CURVE ( 'NONE', #221, #210, #66, .T. ) ;
#238 = APPROVAL_ROLE ( '' ) ;
#239 = DATE_AND_TIME ( #49, #167 ) ;
#240 = APPLICATION_PROTOCOL_DEFINITION ( 'international standard', 'config_control_design', 1994, #151 ) ;
#241 = PRODUCT_RELATED_PRODUCT_CATEGORY ( 'detail', '', ( #94 ) ) ;
#242 =( NAMED_UNIT ( * ) SI_UNIT ( $, .STERADIAN. ) SOLID_ANGLE_UNIT ( ) );
#243 = DIRECTION ( 'NONE',  ( 0.000000000000000000, 0.000000000000000000, 1.000000000000000000 ) ) ;
#244 = AXIS2_PLACEMENT_3D ( 'NONE', #303, #185, #260 ) ;
#245 = APPROVAL ( #307, 'NEURÈENÝ' ) ;
#246 = DIRECTION ( 'NONE',  ( -0.000000000000000000, -0.000000000000000000, -1.000000000000000000 ) ) ;
#247 = ORIENTED_EDGE ( 'NONE', *, *, #149, .F. ) ;
#248 = CARTESIAN_POINT ( 'NONE',  ( 6.299999999999998934, 0.000000000000000000, 7.200000000000011724 ) ) ;
#249 = PERSON ( 'NEURÈENÝ', 'NEURÈENÝ', 'NEURÈENÝ', ('NEURÈENÝ'), ('NEURÈENÝ'), ('NEURÈENÝ') ) ;
#250 = EDGE_LOOP ( 'NONE', ( #271, #153 ) ) ;
#251 = ORIENTED_EDGE ( 'NONE', *, *, #55, .F. ) ;
#252 = LOCAL_TIME ( 11, 45, 4.000000000000000000, #169 ) ;
#253 = DIRECTION ( 'NONE',  ( 1.000000000000000000, 0.000000000000000000, 0.000000000000000000 ) ) ;
#254 = CARTESIAN_POINT ( 'NONE',  ( 0.000000000000000000, 0.000000000000000000, 7.000000000000000000 ) ) ;
#255 = EDGE_CURVE ( 'NONE', #221, #272, #164, .T. ) ;
#256 = DIRECTION ( 'NONE',  ( -0.000000000000000000, -0.000000000000000000, -1.000000000000000000 ) ) ;
#257 = AXIS2_PLACEMENT_3D ( 'NONE', #29, #4, #146 ) ;
#258 = FACE_OUTER_BOUND ( 'NONE', #296, .T. ) ;
#259 = SECURITY_CLASSIFICATION_LEVEL ( 'unclassified' ) ;
#260 = DIRECTION ( 'NONE',  ( -1.000000000000000000, 0.000000000000000000, 0.000000000000000000 ) ) ;
#261 = APPROVAL_DATE_TIME ( #263, #92 ) ;
#262 = ADVANCED_FACE ( 'NONE', ( #103 ), #219, .T. ) ;
#263 = DATE_AND_TIME ( #71, #58 ) ;
#264 = CALENDAR_DATE ( 2022, 7, 7 ) ;
#265 = DIRECTION ( 'NONE',  ( 1.000000000000000000, 0.000000000000000000, 0.000000000000000000 ) ) ;
#266 = EDGE_CURVE ( 'NONE', #272, #221, #50, .T. ) ;
#267 = DIRECTION ( 'NONE',  ( 0.000000000000000000, 0.000000000000000000, 1.000000000000000000 ) ) ;
#268 = AXIS2_PLACEMENT_3D ( 'NONE', #248, #135, #226 ) ;
#269 = EDGE_LOOP ( 'NONE', ( #12, #156, #182, #60 ) ) ;
#270 = DIRECTION ( 'NONE',  ( -0.000000000000000000, -0.000000000000000000, -1.000000000000000000 ) ) ;
#271 = ORIENTED_EDGE ( 'NONE', *, *, #62, .F. ) ;
#272 = VERTEX_POINT ( 'NONE', #9 ) ;
#273 = AXIS2_PLACEMENT_3D ( 'NONE', #131, #292, #184 ) ;
#274 = ORIENTED_EDGE ( 'NONE', *, *, #209, .F. ) ;
#275 = DIRECTION ( 'NONE',  ( -0.000000000000000000, -0.000000000000000000, -1.000000000000000000 ) ) ;
#276 = EDGE_CURVE ( 'NONE', #222, #123, #176, .T. ) ;
#277 = CYLINDRICAL_SURFACE ( 'NONE', #196, 9.000000000000000000 ) ;
#278 = DIRECTION ( 'NONE',  ( 0.000000000000000000, 0.000000000000000000, 1.000000000000000000 ) ) ;
#279 = CYLINDRICAL_SURFACE ( 'NONE', #244, 6.099999999999999645 ) ;
#280 = COORDINATED_UNIVERSAL_TIME_OFFSET ( 1, 0, .AHEAD. ) ;
#281 = CIRCLE ( 'NONE', #17, 6.299999999999998934 ) ;
#282 = PERSON_AND_ORGANIZATION ( #249, #299 ) ;
#283 = CC_DESIGN_PERSON_AND_ORGANIZATION_ASSIGNMENT ( #165, #236, ( #220 ) ) ;
#284 = DIRECTION ( 'NONE',  ( -0.000000000000000000, -0.000000000000000000, -1.000000000000000000 ) ) ;
#285 = CARTESIAN_POINT ( 'NONE',  ( -9.000000000000000000, 0.000000000000000000, 7.000000000000000000 ) ) ;
#286 = TOROIDAL_SURFACE ( 'NONE', #216, 6.299999999999998934, 0.2000000000000000111 ) ;
#287 = EDGE_CURVE ( 'NONE', #109, #222, #174, .T. ) ;
#288 = PERSON_AND_ORGANIZATION_ROLE ( 'design_owner' ) ;
#289 = CC_DESIGN_SECURITY_CLASSIFICATION ( #25, ( #99 ) ) ;
#290 = DIRECTION ( 'NONE',  ( 1.000000000000000000, 0.000000000000000000, 0.000000000000000000 ) ) ;
#291 = CARTESIAN_POINT ( 'NONE',  ( 9.000000000000000000, 1.102182119232617714E-15, 7.000000000000000000 ) ) ;
#292 = DIRECTION ( 'NONE',  ( -0.000000000000000000, -0.000000000000000000, -1.000000000000000000 ) ) ;
#293 = AXIS2_PLACEMENT_3D ( 'NONE', #213, #40, #20 ) ;
#294 = CC_DESIGN_APPROVAL ( #179, ( #99 ) ) ;
#295 = ADVANCED_FACE ( 'NONE', ( #199 ), #215, .F. ) ;
#296 = EDGE_LOOP ( 'NONE', ( #56, #134, #297, #217 ) ) ;
#297 = ORIENTED_EDGE ( 'NONE', *, *, #7, .T. ) ;
#298 = CARTESIAN_POINT ( 'NONE',  ( 6.299999999999998934, 0.000000000000000000, 7.000000000000006217 ) ) ;
#299 = ORGANIZATION ( 'NEURÈENÝ', 'NEURÈENÝ', '' ) ;
#300 = CARTESIAN_POINT ( 'NONE',  ( -6.099999999999999645, 0.000000000000000000, 167.0000000000000000 ) ) ;
#301 = FACE_BOUND ( 'NONE', #34, .T. ) ;
#302 = SHAPE_DEFINITION_REPRESENTATION ( #166, #198 ) ;
#303 = CARTESIAN_POINT ( 'NONE',  ( 0.000000000000000000, 0.000000000000000000, 167.0000000000000000 ) ) ;
#304 = PERSON_AND_ORGANIZATION ( #249, #299 ) ;
#305 = VECTOR ( 'NONE', #284, 1000.000000000000000 ) ;
#306 = CC_DESIGN_APPROVAL ( #92, ( #220 ) ) ;
#307 = APPROVAL_STATUS ( 'not_yet_approved' ) ;
ENDSEC;
END-ISO-10303-21;
