ISO-10303-21;
HEADER;
FILE_DESCRIPTION (( 'STEP AP203' ),
    '1' );
FILE_NAME ('4e1e.STEP',
    '2023-02-12T11:58:20',
    ( '' ),
    ( '' ),
    'SwSTEP 2.0',
    'SolidWorks 2019',
    '' );
FILE_SCHEMA (( 'CONFIG_CONTROL_DESIGN' ));
ENDSEC;

DATA;
#1 = FACE_OUTER_BOUND ( 'NONE', #99, .T. ) ;
#2 = CALENDAR_DATE ( 2023, 12, 2 ) ;
#3 = EDGE_LOOP ( 'NONE', ( #134, #197 ) ) ;
#4 = VECTOR ( 'NONE', #26, 1000.000000000000000 ) ;
#5 = CARTESIAN_POINT ( 'NONE',  ( 3.500000000000000000, 4.286263797015736595E-16, 800.0000000000000000 ) ) ;
#6 = PERSON_AND_ORGANIZATION ( #69, #87 ) ;
#7 = CARTESIAN_POINT ( 'NONE',  ( 0.000000000000000000, 0.000000000000000000, 5.000000000000000000 ) ) ;
#8 = DATE_AND_TIME ( #159, #241 ) ;
#9 = CARTESIAN_POINT ( 'NONE',  ( 0.000000000000000000, 0.000000000000000000, 0.000000000000000000 ) ) ;
#10 =( GEOMETRIC_REPRESENTATION_CONTEXT ( 3 ) GLOBAL_UNCERTAINTY_ASSIGNED_CONTEXT ( ( #199 ) ) GLOBAL_UNIT_ASSIGNED_CONTEXT ( ( #37, #175, #162 ) ) REPRESENTATION_CONTEXT ( 'NONE', 'WORKASPACE' ) );
#11 = VERTEX_POINT ( 'NONE', #184 ) ;
#12 = DIRECTION ( 'NONE',  ( 0.000000000000000000, 0.000000000000000000, 1.000000000000000000 ) ) ;
#13 = ADVANCED_FACE ( 'NONE', ( #1 ), #73, .T. ) ;
#14 = EDGE_LOOP ( 'NONE', ( #55, #193 ) ) ;
#15 = CIRCLE ( 'NONE', #228, 3.500000000000000000 ) ;
#16 = CARTESIAN_POINT ( 'NONE',  ( 6.000000000000000888, 7.347880794884120722E-16, 5.000000000000000000 ) ) ;
#17 = CC_DESIGN_PERSON_AND_ORGANIZATION_ASSIGNMENT ( #24, #240, ( #161 ) ) ;
#18 = DIRECTION ( 'NONE',  ( -1.000000000000000000, 0.000000000000000000, 0.000000000000000000 ) ) ;
#19 = LOCAL_TIME ( 12, 58, 20.00000000000000000, #153 ) ;
#20 = CARTESIAN_POINT ( 'NONE',  ( -3.500000000000000000, 0.000000000000000000, 5.000000000000000000 ) ) ;
#21 = ORIENTED_EDGE ( 'NONE', *, *, #140, .T. ) ;
#22 = APPLICATION_CONTEXT ( 'configuration controlled 3d designs of mechanical parts and assemblies' ) ;
#23 = ADVANCED_FACE ( 'NONE', ( #146 ), #110, .T. ) ;
#24 = PERSON_AND_ORGANIZATION ( #69, #87 ) ;
#25 = CIRCLE ( 'NONE', #166, 6.000000000000000888 ) ;
#26 = DIRECTION ( 'NONE',  ( -0.000000000000000000, -0.000000000000000000, -1.000000000000000000 ) ) ;
#27 = ADVANCED_FACE ( 'NONE', ( #59 ), #150, .F. ) ;
#28 = CARTESIAN_POINT ( 'NONE',  ( -6.000000000000000888, 0.000000000000000000, 0.000000000000000000 ) ) ;
#29 = APPROVAL_DATE_TIME ( #195, #221 ) ;
#30 = AXIS2_PLACEMENT_3D ( 'NONE', #201, #225, #187 ) ;
#31 = CARTESIAN_POINT ( 'NONE',  ( 0.000000000000000000, 0.000000000000000000, 800.0000000000000000 ) ) ;
#32 = EDGE_CURVE ( 'NONE', #57, #224, #129, .T. ) ;
#33 = APPLICATION_CONTEXT ( 'configuration controlled 3d designs of mechanical parts and assemblies' ) ;
#34 = DIRECTION ( 'NONE',  ( 0.000000000000000000, 0.000000000000000000, 1.000000000000000000 ) ) ;
#35 = EDGE_CURVE ( 'NONE', #40, #11, #185, .T. ) ;
#36 = APPROVAL_PERSON_ORGANIZATION ( #78, #142, #111 ) ;
#37 =( LENGTH_UNIT ( ) NAMED_UNIT ( * ) SI_UNIT ( .MILLI., .METRE. ) );
#38 = CIRCLE ( 'NONE', #223, 6.000000000000000888 ) ;
#39 = CARTESIAN_POINT ( 'NONE',  ( 6.000000000000000888, 7.347880794884120722E-16, 5.000000000000000000 ) ) ;
#40 = VERTEX_POINT ( 'NONE', #16 ) ;
#41 = PRODUCT_DEFINITION ( 'NEZNÁMÝ', '', #47, #79 ) ;
#42 = PERSON_AND_ORGANIZATION ( #69, #87 ) ;
#43 = LINE ( 'NONE', #236, #4 ) ;
#44 = ORIENTED_EDGE ( 'NONE', *, *, #127, .T. ) ;
#45 = COORDINATED_UNIVERSAL_TIME_OFFSET ( 1, 0, .AHEAD. ) ;
#46 = APPROVAL_STATUS ( 'not_yet_approved' ) ;
#47 = PRODUCT_DEFINITION_FORMATION_WITH_SPECIFIED_SOURCE ( 'LIBOVOLNÝ', '', #48, .NOT_KNOWN. ) ;
#48 = PRODUCT ( '4e1e', '4e1e', '', ( #247 ) ) ;
#49 = APPROVAL ( #252, 'NEURÈENÝ' ) ;
#50 = PERSON_AND_ORGANIZATION_ROLE ( 'creator' ) ;
#51 = AXIS2_PLACEMENT_3D ( 'NONE', #208, #255, #18 ) ;
#52 = EDGE_CURVE ( 'NONE', #251, #170, #60, .T. ) ;
#53 = DIRECTION ( 'NONE',  ( 1.000000000000000000, 0.000000000000000000, 0.000000000000000000 ) ) ;
#54 = DIRECTION ( 'NONE',  ( 1.000000000000000000, 0.000000000000000000, -0.000000000000000000 ) ) ;
#55 = ORIENTED_EDGE ( 'NONE', *, *, #178, .F. ) ;
#56 = CC_DESIGN_APPROVAL ( #221, ( #161 ) ) ;
#57 = VERTEX_POINT ( 'NONE', #253 ) ;
#58 = ORIENTED_EDGE ( 'NONE', *, *, #35, .F. ) ;
#59 = FACE_OUTER_BOUND ( 'NONE', #14, .T. ) ;
#60 = LINE ( 'NONE', #126, #74 ) ;
#61 = CARTESIAN_POINT ( 'NONE',  ( 0.000000000000000000, 0.000000000000000000, 5.000000000000000000 ) ) ;
#62 = APPLICATION_PROTOCOL_DEFINITION ( 'international standard', 'config_control_design', 1994, #22 ) ;
#63 = EDGE_LOOP ( 'NONE', ( #177, #21, #250, #181 ) ) ;
#64 = AXIS2_PLACEMENT_3D ( 'NONE', #67, #132, #214 ) ;
#65 = PERSON_AND_ORGANIZATION ( #69, #87 ) ;
#66 = ORIENTED_EDGE ( 'NONE', *, *, #52, .T. ) ;
#67 = CARTESIAN_POINT ( 'NONE',  ( 0.000000000000000000, 0.000000000000000000, 5.000000000000000000 ) ) ;
#68 = AXIS2_PLACEMENT_3D ( 'NONE', #164, #245, #70 ) ;
#69 = PERSON ( 'NEURÈENÝ', 'NEURÈENÝ', 'NEURÈENÝ', ('NEURÈENÝ'), ('NEURÈENÝ'), ('NEURÈENÝ') ) ;
#70 = DIRECTION ( 'NONE',  ( 1.000000000000000000, 0.000000000000000000, -0.000000000000000000 ) ) ;
#71 = ORIENTED_EDGE ( 'NONE', *, *, #140, .F. ) ;
#72 = ORIENTED_EDGE ( 'NONE', *, *, #205, .T. ) ;
#73 = CYLINDRICAL_SURFACE ( 'NONE', #51, 3.500000000000000000 ) ;
#74 = VECTOR ( 'NONE', #122, 1000.000000000000000 ) ;
#75 = CARTESIAN_POINT ( 'NONE',  ( 0.000000000000000000, 0.000000000000000000, 5.000000000000000000 ) ) ;
#76 = PRODUCT_DEFINITION_SHAPE ( 'NONE', 'NONE',  #41 ) ;
#77 = VERTEX_POINT ( 'NONE', #189 ) ;
#78 = PERSON_AND_ORGANIZATION ( #69, #87 ) ;
#79 = DESIGN_CONTEXT ( 'detailed design', #22, 'design' ) ;
#80 = VERTEX_POINT ( 'NONE', #20 ) ;
#81 = APPROVAL_DATE_TIME ( #229, #142 ) ;
#82 = EDGE_LOOP ( 'NONE', ( #58, #109, #66, #154 ) ) ;
#83 = DIRECTION ( 'NONE',  ( 0.000000000000000000, 0.000000000000000000, 1.000000000000000000 ) ) ;
#84 = PRODUCT_RELATED_PRODUCT_CATEGORY ( 'detail', '', ( #48 ) ) ;
#85 = PLANE ( 'NONE',  #68 ) ;
#86 = CC_DESIGN_DATE_AND_TIME_ASSIGNMENT ( #152, #204, ( #41 ) ) ;
#87 = ORGANIZATION ( 'NEURÈENÝ', 'NEURÈENÝ', '' ) ;
#88 = ADVANCED_FACE ( 'NONE', ( #92 ), #206, .T. ) ;
#89 = EDGE_CURVE ( 'NONE', #80, #77, #15, .T. ) ;
#90 = CIRCLE ( 'NONE', #254, 3.500000000000000000 ) ;
#91 = DIRECTION ( 'NONE',  ( 0.000000000000000000, 0.000000000000000000, 1.000000000000000000 ) ) ;
#92 = FACE_OUTER_BOUND ( 'NONE', #93, .T. ) ;
#93 = EDGE_LOOP ( 'NONE', ( #139, #149, #44, #108 ) ) ;
#94 = DIRECTION ( 'NONE',  ( 1.000000000000000000, 0.000000000000000000, 0.000000000000000000 ) ) ;
#95 = LOCAL_TIME ( 12, 58, 20.00000000000000000, #45 ) ;
#96 = DATE_AND_TIME ( #212, #19 ) ;
#97 = EDGE_CURVE ( 'NONE', #224, #80, #43, .T. ) ;
#98 = DIRECTION ( 'NONE',  ( 0.000000000000000000, 0.000000000000000000, 1.000000000000000000 ) ) ;
#99 = EDGE_LOOP ( 'NONE', ( #71, #144, #137, #238 ) ) ;
#100 = DIRECTION ( 'NONE',  ( 1.000000000000000000, 0.000000000000000000, 0.000000000000000000 ) ) ;
#101 = DIRECTION ( 'NONE',  ( 1.000000000000000000, 0.000000000000000000, 0.000000000000000000 ) ) ;
#102 = VECTOR ( 'NONE', #128, 1000.000000000000000 ) ;
#103 = PLANE ( 'NONE',  #191 ) ;
#104 = PERSON_AND_ORGANIZATION ( #69, #87 ) ;
#105 = CARTESIAN_POINT ( 'NONE',  ( 0.000000000000000000, 0.000000000000000000, 800.0000000000000000 ) ) ;
#106 = AXIS2_PLACEMENT_3D ( 'NONE', #105, #203, #232 ) ;
#107 = DIRECTION ( 'NONE',  ( 0.000000000000000000, 0.000000000000000000, 1.000000000000000000 ) ) ;
#108 = ORIENTED_EDGE ( 'NONE', *, *, #52, .F. ) ;
#109 = ORIENTED_EDGE ( 'NONE', *, *, #121, .F. ) ;
#110 = CYLINDRICAL_SURFACE ( 'NONE', #30, 3.500000000000000000 ) ;
#111 = APPROVAL_ROLE ( '' ) ;
#112 = DIRECTION ( 'NONE',  ( 0.000000000000000000, 0.000000000000000000, 1.000000000000000000 ) ) ;
#113 = DIRECTION ( 'NONE',  ( 1.000000000000000000, 0.000000000000000000, 0.000000000000000000 ) ) ;
#114 = CIRCLE ( 'NONE', #213, 3.500000000000000000 ) ;
#115 = DIRECTION ( 'NONE',  ( 1.000000000000000000, 0.000000000000000000, 0.000000000000000000 ) ) ;
#116 = PERSON_AND_ORGANIZATION_ROLE ( 'design_supplier' ) ;
#117 = DIRECTION ( 'NONE',  ( 0.000000000000000000, 0.000000000000000000, 1.000000000000000000 ) ) ;
#118 = SHAPE_DEFINITION_REPRESENTATION ( #76, #168 ) ;
#119 = CARTESIAN_POINT ( 'NONE',  ( -3.500000000000000000, 0.000000000000000000, 800.0000000000000000 ) ) ;
#120 = CLOSED_SHELL ( 'NONE', ( #23, #88, #163, #249, #27, #13, #202 ) ) ;
#121 = EDGE_CURVE ( 'NONE', #251, #40, #169, .T. ) ;
#122 = DIRECTION ( 'NONE',  ( -0.000000000000000000, -0.000000000000000000, -1.000000000000000000 ) ) ;
#123 = CARTESIAN_POINT ( 'NONE',  ( 0.000000000000000000, 0.000000000000000000, 0.000000000000000000 ) ) ;
#124 = CC_DESIGN_APPROVAL ( #49, ( #47 ) ) ;
#125 = CC_DESIGN_DATE_AND_TIME_ASSIGNMENT ( #96, #174, ( #161 ) ) ;
#126 = CARTESIAN_POINT ( 'NONE',  ( -6.000000000000000888, 0.000000000000000000, 5.000000000000000000 ) ) ;
#127 = EDGE_CURVE ( 'NONE', #11, #170, #25, .T. ) ;
#128 = DIRECTION ( 'NONE',  ( -0.000000000000000000, -0.000000000000000000, -1.000000000000000000 ) ) ;
#129 = CIRCLE ( 'NONE', #106, 3.500000000000000000 ) ;
#130 = COORDINATED_UNIVERSAL_TIME_OFFSET ( 1, 0, .AHEAD. ) ;
#131 = AXIS2_PLACEMENT_3D ( 'NONE', #198, #34, #101 ) ;
#132 = DIRECTION ( 'NONE',  ( -0.000000000000000000, -0.000000000000000000, -1.000000000000000000 ) ) ;
#133 = APPROVAL_ROLE ( '' ) ;
#134 = ORIENTED_EDGE ( 'NONE', *, *, #121, .T. ) ;
#135 = LINE ( 'NONE', #5, #200 ) ;
#136 = CARTESIAN_POINT ( 'NONE',  ( 0.000000000000000000, 0.000000000000000000, 800.0000000000000000 ) ) ;
#137 = ORIENTED_EDGE ( 'NONE', *, *, #97, .T. ) ;
#138 = AXIS2_PLACEMENT_3D ( 'NONE', #7, #98, #113 ) ;
#139 = ORIENTED_EDGE ( 'NONE', *, *, #231, .F. ) ;
#140 = EDGE_CURVE ( 'NONE', #57, #77, #135, .T. ) ;
#141 = CARTESIAN_POINT ( 'NONE',  ( -6.000000000000000888, 0.000000000000000000, 5.000000000000000000 ) ) ;
#142 = APPROVAL ( #233, 'NEURÈENÝ' ) ;
#143 = LOCAL_TIME ( 12, 58, 20.00000000000000000, #192 ) ;
#144 = ORIENTED_EDGE ( 'NONE', *, *, #205, .F. ) ;
#145 = MANIFOLD_SOLID_BREP ( 'Pøidat vysunutím3', #120 ) ;
#146 = FACE_OUTER_BOUND ( 'NONE', #63, .T. ) ;
#147 = AXIS2_PLACEMENT_3D ( 'NONE', #123, #107, #227 ) ;
#148 = DIRECTION ( 'NONE',  ( -0.000000000000000000, -0.000000000000000000, -1.000000000000000000 ) ) ;
#149 = ORIENTED_EDGE ( 'NONE', *, *, #35, .T. ) ;
#150 = PLANE ( 'NONE',  #147 ) ;
#151 = PERSON_AND_ORGANIZATION ( #69, #87 ) ;
#152 = DATE_AND_TIME ( #172, #95 ) ;
#153 = COORDINATED_UNIVERSAL_TIME_OFFSET ( 1, 0, .AHEAD. ) ;
#154 = ORIENTED_EDGE ( 'NONE', *, *, #178, .T. ) ;
#155 = DIRECTION ( 'NONE',  ( -0.000000000000000000, -0.000000000000000000, -1.000000000000000000 ) ) ;
#156 = EDGE_LOOP ( 'NONE', ( #72, #222 ) ) ;
#157 = APPROVAL_PERSON_ORGANIZATION ( #65, #221, #133 ) ;
#158 = CARTESIAN_POINT ( 'NONE',  ( 0.000000000000000000, 0.000000000000000000, 0.000000000000000000 ) ) ;
#159 = CALENDAR_DATE ( 2023, 12, 2 ) ;
#160 = CARTESIAN_POINT ( 'NONE',  ( 0.000000000000000000, 0.000000000000000000, 5.000000000000000000 ) ) ;
#161 = SECURITY_CLASSIFICATION ( '', '', #237 ) ;
#162 =( NAMED_UNIT ( * ) SI_UNIT ( $, .STERADIAN. ) SOLID_ANGLE_UNIT ( ) );
#163 = ADVANCED_FACE ( 'NONE', ( #239 ), #242, .T. ) ;
#164 = CARTESIAN_POINT ( 'NONE',  ( 0.000000000000000000, 0.000000000000000000, 5.000000000000000000 ) ) ;
#165 = APPLICATION_PROTOCOL_DEFINITION ( 'international standard', 'config_control_design', 1994, #33 ) ;
#166 = AXIS2_PLACEMENT_3D ( 'NONE', #194, #83, #115 ) ;
#167 = CC_DESIGN_PERSON_AND_ORGANIZATION_ASSIGNMENT ( #6, #116, ( #47 ) ) ;
#168 = ADVANCED_BREP_SHAPE_REPRESENTATION ( '4e1e', ( #145, #219 ), #10 ) ;
#169 = CIRCLE ( 'NONE', #138, 6.000000000000000888 ) ;
#170 = VERTEX_POINT ( 'NONE', #28 ) ;
#171 = ORIENTED_EDGE ( 'NONE', *, *, #89, .F. ) ;
#172 = CALENDAR_DATE ( 2023, 12, 2 ) ;
#173 = CIRCLE ( 'NONE', #131, 6.000000000000000888 ) ;
#174 = DATE_TIME_ROLE ( 'classification_date' ) ;
#175 =( NAMED_UNIT ( * ) PLANE_ANGLE_UNIT ( ) SI_UNIT ( $, .RADIAN. ) );
#176 = CC_DESIGN_PERSON_AND_ORGANIZATION_ASSIGNMENT ( #151, #210, ( #41 ) ) ;
#177 = ORIENTED_EDGE ( 'NONE', *, *, #32, .F. ) ;
#178 = EDGE_CURVE ( 'NONE', #170, #11, #38, .T. ) ;
#179 = FACE_BOUND ( 'NONE', #248, .T. ) ;
#180 = AXIS2_PLACEMENT_3D ( 'NONE', #75, #148, #230 ) ;
#181 = ORIENTED_EDGE ( 'NONE', *, *, #97, .F. ) ;
#182 = FACE_OUTER_BOUND ( 'NONE', #3, .T. ) ;
#183 = PERSON_AND_ORGANIZATION_ROLE ( 'design_owner' ) ;
#184 = CARTESIAN_POINT ( 'NONE',  ( 6.000000000000000888, 7.347880794884120722E-16, 0.000000000000000000 ) ) ;
#185 = LINE ( 'NONE', #39, #102 ) ;
#186 = CC_DESIGN_PERSON_AND_ORGANIZATION_ASSIGNMENT ( #104, #183, ( #48 ) ) ;
#187 = DIRECTION ( 'NONE',  ( -1.000000000000000000, 0.000000000000000000, 0.000000000000000000 ) ) ;
#188 = CC_DESIGN_SECURITY_CLASSIFICATION ( #161, ( #47 ) ) ;
#189 = CARTESIAN_POINT ( 'NONE',  ( 3.500000000000000000, 4.286263797015736595E-16, 5.000000000000000000 ) ) ;
#190 = COORDINATED_UNIVERSAL_TIME_OFFSET ( 1, 0, .AHEAD. ) ;
#191 = AXIS2_PLACEMENT_3D ( 'NONE', #136, #217, #54 ) ;
#192 = COORDINATED_UNIVERSAL_TIME_OFFSET ( 1, 0, .AHEAD. ) ;
#193 = ORIENTED_EDGE ( 'NONE', *, *, #127, .F. ) ;
#194 = CARTESIAN_POINT ( 'NONE',  ( 0.000000000000000000, 0.000000000000000000, 0.000000000000000000 ) ) ;
#195 = DATE_AND_TIME ( #215, #143 ) ;
#196 = APPROVAL_ROLE ( '' ) ;
#197 = ORIENTED_EDGE ( 'NONE', *, *, #231, .T. ) ;
#198 = CARTESIAN_POINT ( 'NONE',  ( 0.000000000000000000, 0.000000000000000000, 5.000000000000000000 ) ) ;
#199 = UNCERTAINTY_MEASURE_WITH_UNIT (LENGTH_MEASURE( 1.000000000000000082E-05 ), #37, 'distance_accuracy_value', 'NONE');
#200 = VECTOR ( 'NONE', #155, 1000.000000000000000 ) ;
#201 = CARTESIAN_POINT ( 'NONE',  ( 0.000000000000000000, 0.000000000000000000, 800.0000000000000000 ) ) ;
#202 = ADVANCED_FACE ( 'NONE', ( #235 ), #103, .T. ) ;
#203 = DIRECTION ( 'NONE',  ( 0.000000000000000000, 0.000000000000000000, 1.000000000000000000 ) ) ;
#204 = DATE_TIME_ROLE ( 'creation_date' ) ;
#205 = EDGE_CURVE ( 'NONE', #224, #57, #114, .T. ) ;
#206 = CYLINDRICAL_SURFACE ( 'NONE', #180, 6.000000000000000888 ) ;
#207 = DIRECTION ( 'NONE',  ( 1.000000000000000000, 0.000000000000000000, 0.000000000000000000 ) ) ;
#208 = CARTESIAN_POINT ( 'NONE',  ( 0.000000000000000000, 0.000000000000000000, 800.0000000000000000 ) ) ;
#209 = LOCAL_TIME ( 12, 58, 20.00000000000000000, #190 ) ;
#210 = PERSON_AND_ORGANIZATION_ROLE ( 'creator' ) ;
#211 = CC_DESIGN_PERSON_AND_ORGANIZATION_ASSIGNMENT ( #218, #50, ( #47 ) ) ;
#212 = CALENDAR_DATE ( 2023, 12, 2 ) ;
#213 = AXIS2_PLACEMENT_3D ( 'NONE', #31, #117, #100 ) ;
#214 = DIRECTION ( 'NONE',  ( -1.000000000000000000, 0.000000000000000000, 0.000000000000000000 ) ) ;
#215 = CALENDAR_DATE ( 2023, 12, 2 ) ;
#216 = ORIENTED_EDGE ( 'NONE', *, *, #226, .F. ) ;
#217 = DIRECTION ( 'NONE',  ( 0.000000000000000000, 0.000000000000000000, 1.000000000000000000 ) ) ;
#218 = PERSON_AND_ORGANIZATION ( #69, #87 ) ;
#219 = AXIS2_PLACEMENT_3D ( 'NONE', #9, #12, #246 ) ;
#220 = DIRECTION ( 'NONE',  ( 0.000000000000000000, 0.000000000000000000, 1.000000000000000000 ) ) ;
#221 = APPROVAL ( #46, 'NEURÈENÝ' ) ;
#222 = ORIENTED_EDGE ( 'NONE', *, *, #32, .T. ) ;
#223 = AXIS2_PLACEMENT_3D ( 'NONE', #158, #112, #94 ) ;
#224 = VERTEX_POINT ( 'NONE', #119 ) ;
#225 = DIRECTION ( 'NONE',  ( -0.000000000000000000, -0.000000000000000000, -1.000000000000000000 ) ) ;
#226 = EDGE_CURVE ( 'NONE', #77, #80, #90, .T. ) ;
#227 = DIRECTION ( 'NONE',  ( 1.000000000000000000, 0.000000000000000000, -0.000000000000000000 ) ) ;
#228 = AXIS2_PLACEMENT_3D ( 'NONE', #61, #91, #207 ) ;
#229 = DATE_AND_TIME ( #2, #209 ) ;
#230 = DIRECTION ( 'NONE',  ( -1.000000000000000000, 0.000000000000000000, 0.000000000000000000 ) ) ;
#231 = EDGE_CURVE ( 'NONE', #40, #251, #173, .T. ) ;
#232 = DIRECTION ( 'NONE',  ( 1.000000000000000000, 0.000000000000000000, 0.000000000000000000 ) ) ;
#233 = APPROVAL_STATUS ( 'not_yet_approved' ) ;
#234 = CC_DESIGN_APPROVAL ( #142, ( #41 ) ) ;
#235 = FACE_OUTER_BOUND ( 'NONE', #156, .T. ) ;
#236 = CARTESIAN_POINT ( 'NONE',  ( -3.500000000000000000, 0.000000000000000000, 800.0000000000000000 ) ) ;
#237 = SECURITY_CLASSIFICATION_LEVEL ( 'unclassified' ) ;
#238 = ORIENTED_EDGE ( 'NONE', *, *, #89, .T. ) ;
#239 = FACE_OUTER_BOUND ( 'NONE', #82, .T. ) ;
#240 = PERSON_AND_ORGANIZATION_ROLE ( 'classification_officer' ) ;
#241 = LOCAL_TIME ( 12, 58, 20.00000000000000000, #130 ) ;
#242 = CYLINDRICAL_SURFACE ( 'NONE', #64, 6.000000000000000888 ) ;
#243 = APPROVAL_DATE_TIME ( #8, #49 ) ;
#244 = APPROVAL_PERSON_ORGANIZATION ( #42, #49, #196 ) ;
#245 = DIRECTION ( 'NONE',  ( 0.000000000000000000, 0.000000000000000000, 1.000000000000000000 ) ) ;
#246 = DIRECTION ( 'NONE',  ( 1.000000000000000000, 0.000000000000000000, 0.000000000000000000 ) ) ;
#247 = MECHANICAL_CONTEXT ( 'NONE', #33, 'mechanical' ) ;
#248 = EDGE_LOOP ( 'NONE', ( #171, #216 ) ) ;
#249 = ADVANCED_FACE ( 'NONE', ( #179, #182 ), #85, .T. ) ;
#250 = ORIENTED_EDGE ( 'NONE', *, *, #226, .T. ) ;
#251 = VERTEX_POINT ( 'NONE', #141 ) ;
#252 = APPROVAL_STATUS ( 'not_yet_approved' ) ;
#253 = CARTESIAN_POINT ( 'NONE',  ( 3.500000000000000000, 4.286263797015736595E-16, 800.0000000000000000 ) ) ;
#254 = AXIS2_PLACEMENT_3D ( 'NONE', #160, #220, #53 ) ;
#255 = DIRECTION ( 'NONE',  ( -0.000000000000000000, -0.000000000000000000, -1.000000000000000000 ) ) ;
ENDSEC;
END-ISO-10303-21;
