ISO-10303-21;
HEADER;
FILE_DESCRIPTION (( 'STEP AP203' ),
    '1' );
FILE_NAME ('6dae.STEP',
    '2022-07-07T09:33:10',
    ( '' ),
    ( '' ),
    'SwSTEP 2.0',
    'SolidWorks 2019',
    '' );
FILE_SCHEMA (( 'CONFIG_CONTROL_DESIGN' ));
ENDSEC;

DATA;
#1 = DIRECTION ( 'NONE',  ( 0.000000000000000000, 0.000000000000000000, 1.000000000000000000 ) ) ;
#2 = APPROVAL_DATE_TIME ( #159, #250 ) ;
#3 = DIRECTION ( 'NONE',  ( 1.000000000000000000, 0.000000000000000000, 0.000000000000000000 ) ) ;
#4 = CIRCLE ( 'NONE', #150, 10.00000000000000000 ) ;
#5 = CIRCLE ( 'NONE', #70, 13.00000000000000178 ) ;
#6 = DIRECTION ( 'NONE',  ( 0.000000000000000000, 0.000000000000000000, 1.000000000000000000 ) ) ;
#7 = EDGE_LOOP ( 'NONE', ( #129, #39, #76, #303 ) ) ;
#8 = VERTEX_POINT ( 'NONE', #50 ) ;
#9 = EDGE_CURVE ( 'NONE', #8, #42, #4, .T. ) ;
#10 = APPROVAL ( #233, 'NEURÈENÝ' ) ;
#11 = DIRECTION ( 'NONE',  ( 0.000000000000000000, 0.000000000000000000, 1.000000000000000000 ) ) ;
#12 = DIRECTION ( 'NONE',  ( 1.224646799147353207E-16, 1.000000000000000000, -0.000000000000000000 ) ) ;
#13 = PRODUCT_RELATED_PRODUCT_CATEGORY ( 'detail', '', ( #33 ) ) ;
#14 = ORIENTED_EDGE ( 'NONE', *, *, #174, .F. ) ;
#15 = CIRCLE ( 'NONE', #238, 13.00000000000000178 ) ;
#16 = CIRCLE ( 'NONE', #191, 10.00000000000000000 ) ;
#17 = DIRECTION ( 'NONE',  ( 0.000000000000000000, 0.000000000000000000, 1.000000000000000000 ) ) ;
#18 = DIRECTION ( 'NONE',  ( -0.000000000000000000, -0.000000000000000000, -1.000000000000000000 ) ) ;
#19 = CARTESIAN_POINT ( 'NONE',  ( 0.000000000000000000, 0.000000000000000000, 1008.000000000000000 ) ) ;
#20 = ADVANCED_FACE ( 'NONE', ( #52, #142 ), #98, .T. ) ;
#21 = COORDINATED_UNIVERSAL_TIME_OFFSET ( 1, 0, .AHEAD. ) ;
#22 = DIRECTION ( 'NONE',  ( 0.000000000000000000, 0.000000000000000000, 1.000000000000000000 ) ) ;
#23 = FACE_OUTER_BOUND ( 'NONE', #175, .T. ) ;
#24 = EDGE_LOOP ( 'NONE', ( #289, #267, #179, #119 ) ) ;
#25 = DIRECTION ( 'NONE',  ( -0.000000000000000000, -0.000000000000000000, -1.000000000000000000 ) ) ;
#26 = CC_DESIGN_PERSON_AND_ORGANIZATION_ASSIGNMENT ( #127, #222, ( #33 ) ) ;
#27 = DIRECTION ( 'NONE',  ( -0.000000000000000000, -0.000000000000000000, -1.000000000000000000 ) ) ;
#28 = ADVANCED_FACE ( 'NONE', ( #245 ), #290, .T. ) ;
#29 = ORIENTED_EDGE ( 'NONE', *, *, #9, .T. ) ;
#30 = VECTOR ( 'NONE', #18, 1000.000000000000000 ) ;
#31 = TOROIDAL_SURFACE ( 'NONE', #55, 10.20000000000000107, 0.2000000000000000111 ) ;
#32 = PERSON_AND_ORGANIZATION_ROLE ( 'creator' ) ;
#33 = PRODUCT ( '6dae', '6dae', '', ( #126 ) ) ;
#34 = VECTOR ( 'NONE', #44, 1000.000000000000000 ) ;
#35 = CARTESIAN_POINT ( 'NONE',  ( 0.000000000000000000, 0.000000000000000000, 0.000000000000000000 ) ) ;
#36 = AXIS2_PLACEMENT_3D ( 'NONE', #218, #27, #169 ) ;
#37 = CARTESIAN_POINT ( 'NONE',  ( 0.000000000000000000, 0.000000000000000000, 8.000000000000000000 ) ) ;
#38 =( NAMED_UNIT ( * ) SI_UNIT ( $, .STERADIAN. ) SOLID_ANGLE_UNIT ( ) );
#39 = ORIENTED_EDGE ( 'NONE', *, *, #9, .F. ) ;
#40 = CARTESIAN_POINT ( 'NONE',  ( 0.000000000000000000, 0.000000000000000000, 8.199999999999985079 ) ) ;
#41 = AXIS2_PLACEMENT_3D ( 'NONE', #239, #212, #117 ) ;
#42 = VERTEX_POINT ( 'NONE', #53 ) ;
#43 = DIRECTION ( 'NONE',  ( -0.000000000000000000, -0.000000000000000000, -1.000000000000000000 ) ) ;
#44 = DIRECTION ( 'NONE',  ( -0.000000000000000000, -0.000000000000000000, -1.000000000000000000 ) ) ;
#45 = DATE_AND_TIME ( #113, #164 ) ;
#46 = EDGE_CURVE ( 'NONE', #193, #166, #77, .T. ) ;
#47 = CARTESIAN_POINT ( 'NONE',  ( 0.000000000000000000, 0.000000000000000000, 8.000000000000000000 ) ) ;
#48 = CIRCLE ( 'NONE', #197, 0.2000000000000005107 ) ;
#49 = DIRECTION ( 'NONE',  ( 1.000000000000000000, 0.000000000000000000, 0.000000000000000000 ) ) ;
#50 = CARTESIAN_POINT ( 'NONE',  ( 10.00000000000000000, 1.224646799147353256E-15, 8.199999999999985079 ) ) ;
#51 = EDGE_LOOP ( 'NONE', ( #230, #216 ) ) ;
#52 = FACE_BOUND ( 'NONE', #167, .T. ) ;
#53 = CARTESIAN_POINT ( 'NONE',  ( -10.00000000000000000, 0.000000000000000000, 8.199999999999985079 ) ) ;
#54 = CIRCLE ( 'NONE', #146, 10.00000000000000000 ) ;
#55 = AXIS2_PLACEMENT_3D ( 'NONE', #285, #138, #158 ) ;
#56 = APPLICATION_PROTOCOL_DEFINITION ( 'international standard', 'config_control_design', 1994, #223 ) ;
#57 = AXIS2_PLACEMENT_3D ( 'NONE', #246, #144, #288 ) ;
#58 =( LENGTH_UNIT ( ) NAMED_UNIT ( * ) SI_UNIT ( .MILLI., .METRE. ) );
#59 = ADVANCED_FACE ( 'NONE', ( #235 ), #177, .T. ) ;
#60 = DIRECTION ( 'NONE',  ( -1.000000000000000000, 0.000000000000000000, 0.000000000000000000 ) ) ;
#61 = DIRECTION ( 'NONE',  ( -0.000000000000000000, -0.000000000000000000, -1.000000000000000000 ) ) ;
#62 = SHAPE_DEFINITION_REPRESENTATION ( #101, #143 ) ;
#63 = CARTESIAN_POINT ( 'NONE',  ( 0.000000000000000000, 0.000000000000000000, 1008.000000000000000 ) ) ;
#64 = APPROVAL_PERSON_ORGANIZATION ( #278, #194, #249 ) ;
#65 = ORIENTED_EDGE ( 'NONE', *, *, #174, .T. ) ;
#66 = DIRECTION ( 'NONE',  ( 1.000000000000000000, 0.000000000000000000, 0.000000000000000000 ) ) ;
#67 = DIRECTION ( 'NONE',  ( 0.000000000000000000, 0.000000000000000000, 1.000000000000000000 ) ) ;
#68 = PERSON_AND_ORGANIZATION ( #219, #231 ) ;
#69 = DIRECTION ( 'NONE',  ( 0.000000000000000000, 0.000000000000000000, 1.000000000000000000 ) ) ;
#70 = AXIS2_PLACEMENT_3D ( 'NONE', #283, #282, #66 ) ;
#71 = EDGE_CURVE ( 'NONE', #299, #131, #15, .T. ) ;
#72 = ORIENTED_EDGE ( 'NONE', *, *, #82, .F. ) ;
#73 = ADVANCED_FACE ( 'NONE', ( #232 ), #102, .F. ) ;
#74 = DIRECTION ( 'NONE',  ( 1.000000000000000000, 0.000000000000000000, 0.000000000000000000 ) ) ;
#75 = ORIENTED_EDGE ( 'NONE', *, *, #147, .F. ) ;
#76 = ORIENTED_EDGE ( 'NONE', *, *, #124, .T. ) ;
#77 = CIRCLE ( 'NONE', #195, 10.20000000000000107 ) ;
#78 = CC_DESIGN_APPROVAL ( #250, ( #202 ) ) ;
#79 = AXIS2_PLACEMENT_3D ( 'NONE', #37, #149, #60 ) ;
#80 = DIRECTION ( 'NONE',  ( -1.000000000000000000, 0.000000000000000000, 0.000000000000000000 ) ) ;
#81 = EDGE_CURVE ( 'NONE', #131, #299, #188, .T. ) ;
#82 = EDGE_CURVE ( 'NONE', #131, #281, #304, .T. ) ;
#83 = APPROVAL_STATUS ( 'not_yet_approved' ) ;
#84 = CARTESIAN_POINT ( 'NONE',  ( -10.20000000000000107, 1.249139735130300365E-15, 8.199999999999985079 ) ) ;
#85 = DIRECTION ( 'NONE',  ( 1.000000000000000000, 0.000000000000000000, 0.000000000000000000 ) ) ;
#86 = SECURITY_CLASSIFICATION_LEVEL ( 'unclassified' ) ;
#87 = ORIENTED_EDGE ( 'NONE', *, *, #201, .T. ) ;
#88 = CARTESIAN_POINT ( 'NONE',  ( 10.20000000000000107, 0.000000000000000000, 8.199999999999985079 ) ) ;
#89 = CALENDAR_DATE ( 2022, 7, 7 ) ;
#90 = MANIFOLD_SOLID_BREP ( 'Zaoblit1', #109 ) ;
#91 = DIRECTION ( 'NONE',  ( 1.000000000000000000, 0.000000000000000000, 0.000000000000000000 ) ) ;
#92 = CALENDAR_DATE ( 2022, 7, 7 ) ;
#93 = EDGE_CURVE ( 'NONE', #120, #42, #277, .T. ) ;
#94 = DIRECTION ( 'NONE',  ( 1.000000000000000000, 0.000000000000000000, 0.000000000000000000 ) ) ;
#95 = ORIENTED_EDGE ( 'NONE', *, *, #147, .T. ) ;
#96 = AXIS2_PLACEMENT_3D ( 'NONE', #84, #12, #275 ) ;
#97 = LOCAL_TIME ( 11, 33, 10.00000000000000000, #213 ) ;
#98 = PLANE ( 'NONE',  #57 ) ;
#99 = ORIENTED_EDGE ( 'NONE', *, *, #170, .F. ) ;
#100 = ORIENTED_EDGE ( 'NONE', *, *, #115, .T. ) ;
#101 = PRODUCT_DEFINITION_SHAPE ( 'NONE', 'NONE',  #168 ) ;
#102 = TOROIDAL_SURFACE ( 'NONE', #243, 10.20000000000000107, 0.2000000000000000111 ) ;
#103 = AXIS2_PLACEMENT_3D ( 'NONE', #35, #17, #110 ) ;
#104 = CC_DESIGN_PERSON_AND_ORGANIZATION_ASSIGNMENT ( #186, #181, ( #202 ) ) ;
#105 = CC_DESIGN_APPROVAL ( #194, ( #168 ) ) ;
#106 = FACE_OUTER_BOUND ( 'NONE', #207, .T. ) ;
#107 = CC_DESIGN_DATE_AND_TIME_ASSIGNMENT ( #173, #108, ( #168 ) ) ;
#108 = DATE_TIME_ROLE ( 'creation_date' ) ;
#109 = CLOSED_SHELL ( 'NONE', ( #176, #272, #291, #59, #20, #307, #28, #262, #73 ) ) ;
#110 = DIRECTION ( 'NONE',  ( 1.000000000000000000, 0.000000000000000000, 0.000000000000000000 ) ) ;
#111 = ORIENTED_EDGE ( 'NONE', *, *, #81, .T. ) ;
#112 = DIRECTION ( 'NONE',  ( 0.000000000000000000, 0.000000000000000000, 1.000000000000000000 ) ) ;
#113 = CALENDAR_DATE ( 2022, 7, 7 ) ;
#114 = CARTESIAN_POINT ( 'NONE',  ( 10.00000000000000000, 1.224646799147353256E-15, 1008.000000000000000 ) ) ;
#115 = EDGE_CURVE ( 'NONE', #299, #190, #306, .T. ) ;
#116 = DIRECTION ( 'NONE',  ( 0.000000000000000000, 0.000000000000000000, -1.000000000000000000 ) ) ;
#117 = DIRECTION ( 'NONE',  ( 1.000000000000000000, 0.000000000000000000, -0.000000000000000000 ) ) ;
#118 = ORIENTED_EDGE ( 'NONE', *, *, #46, .F. ) ;
#119 = ORIENTED_EDGE ( 'NONE', *, *, #224, .T. ) ;
#120 = VERTEX_POINT ( 'NONE', #136 ) ;
#121 = APPLICATION_CONTEXT ( 'configuration controlled 3d designs of mechanical parts and assemblies' ) ;
#122 = CIRCLE ( 'NONE', #137, 13.00000000000000178 ) ;
#123 = AXIS2_PLACEMENT_3D ( 'NONE', #252, #294, #80 ) ;
#124 = EDGE_CURVE ( 'NONE', #8, #193, #48, .T. ) ;
#125 = CYLINDRICAL_SURFACE ( 'NONE', #123, 10.00000000000000000 ) ;
#126 = MECHANICAL_CONTEXT ( 'NONE', #223, 'mechanical' ) ;
#127 = PERSON_AND_ORGANIZATION ( #219, #231 ) ;
#128 = DATE_AND_TIME ( #199, #162 ) ;
#129 = ORIENTED_EDGE ( 'NONE', *, *, #293, .F. ) ;
#130 = LINE ( 'NONE', #114, #30 ) ;
#131 = VERTEX_POINT ( 'NONE', #253 ) ;
#132 = DIRECTION ( 'NONE',  ( 0.000000000000000000, 0.000000000000000000, 1.000000000000000000 ) ) ;
#133 = PERSON_AND_ORGANIZATION ( #219, #231 ) ;
#134 = CC_DESIGN_PERSON_AND_ORGANIZATION_ASSIGNMENT ( #300, #32, ( #168 ) ) ;
#135 = CARTESIAN_POINT ( 'NONE',  ( -10.20000000000000107, 1.249139735130300365E-15, 7.999999999999992895 ) ) ;
#136 = CARTESIAN_POINT ( 'NONE',  ( -10.00000000000000000, 0.000000000000000000, 1008.000000000000000 ) ) ;
#137 = AXIS2_PLACEMENT_3D ( 'NONE', #240, #112, #208 ) ;
#138 = DIRECTION ( 'NONE',  ( 0.000000000000000000, 0.000000000000000000, 1.000000000000000000 ) ) ;
#139 = EDGE_CURVE ( 'NONE', #42, #8, #54, .T. ) ;
#140 = ORIENTED_EDGE ( 'NONE', *, *, #71, .F. ) ;
#141 = ORIENTED_EDGE ( 'NONE', *, *, #293, .T. ) ;
#142 = FACE_OUTER_BOUND ( 'NONE', #226, .T. ) ;
#143 = ADVANCED_BREP_SHAPE_REPRESENTATION ( '6dae', ( #90, #103 ), #257 ) ;
#144 = DIRECTION ( 'NONE',  ( 0.000000000000000000, 0.000000000000000000, 1.000000000000000000 ) ) ;
#145 = AXIS2_PLACEMENT_3D ( 'NONE', #185, #43, #183 ) ;
#146 = AXIS2_PLACEMENT_3D ( 'NONE', #40, #22, #94 ) ;
#147 = EDGE_CURVE ( 'NONE', #287, #8, #130, .T. ) ;
#148 = CARTESIAN_POINT ( 'NONE',  ( 0.000000000000000000, 0.000000000000000000, 0.000000000000000000 ) ) ;
#149 = DIRECTION ( 'NONE',  ( -0.000000000000000000, -0.000000000000000000, -1.000000000000000000 ) ) ;
#150 = AXIS2_PLACEMENT_3D ( 'NONE', #241, #6, #74 ) ;
#151 = COORDINATED_UNIVERSAL_TIME_OFFSET ( 1, 0, .AHEAD. ) ;
#152 = CC_DESIGN_DATE_AND_TIME_ASSIGNMENT ( #45, #184, ( #215 ) ) ;
#153 = APPROVAL_ROLE ( '' ) ;
#154 = CC_DESIGN_PERSON_AND_ORGANIZATION_ASSIGNMENT ( #305, #284, ( #202 ) ) ;
#155 = CARTESIAN_POINT ( 'NONE',  ( -13.00000000000000178, 0.000000000000000000, 0.000000000000000000 ) ) ;
#156 = DIRECTION ( 'NONE',  ( 0.000000000000000000, -1.000000000000000000, 0.000000000000000000 ) ) ;
#157 = EDGE_LOOP ( 'NONE', ( #247, #141, #118, #256 ) ) ;
#158 = DIRECTION ( 'NONE',  ( 1.000000000000000000, 0.000000000000000000, 0.000000000000000000 ) ) ;
#159 = DATE_AND_TIME ( #92, #97 ) ;
#160 = CARTESIAN_POINT ( 'NONE',  ( 0.000000000000000000, 0.000000000000000000, 8.000000000000000000 ) ) ;
#161 = DIRECTION ( 'NONE',  ( -0.000000000000000000, -0.000000000000000000, -1.000000000000000000 ) ) ;
#162 = LOCAL_TIME ( 11, 33, 10.00000000000000000, #273 ) ;
#163 = CARTESIAN_POINT ( 'NONE',  ( -13.00000000000000178, 0.000000000000000000, 8.000000000000000000 ) ) ;
#164 = LOCAL_TIME ( 11, 33, 10.00000000000000000, #21 ) ;
#165 = ORIENTED_EDGE ( 'NONE', *, *, #244, .T. ) ;
#166 = VERTEX_POINT ( 'NONE', #135 ) ;
#167 = EDGE_LOOP ( 'NONE', ( #204, #87 ) ) ;
#168 = PRODUCT_DEFINITION ( 'NEZNÁMÝ', '', #202, #227 ) ;
#169 = DIRECTION ( 'NONE',  ( -1.000000000000000000, 0.000000000000000000, 0.000000000000000000 ) ) ;
#170 = EDGE_CURVE ( 'NONE', #287, #120, #172, .T. ) ;
#171 = AXIS2_PLACEMENT_3D ( 'NONE', #214, #161, #260 ) ;
#172 = CIRCLE ( 'NONE', #265, 10.00000000000000000 ) ;
#173 = DATE_AND_TIME ( #251, #228 ) ;
#174 = EDGE_CURVE ( 'NONE', #120, #287, #16, .T. ) ;
#175 = EDGE_LOOP ( 'NONE', ( #65, #301 ) ) ;
#176 = ADVANCED_FACE ( 'NONE', ( #258 ), #31, .F. ) ;
#177 = CYLINDRICAL_SURFACE ( 'NONE', #171, 13.00000000000000178 ) ;
#178 = CARTESIAN_POINT ( 'NONE',  ( 13.00000000000000178, 1.592040838891559293E-15, 8.000000000000000000 ) ) ;
#179 = ORIENTED_EDGE ( 'NONE', *, *, #82, .T. ) ;
#180 = CARTESIAN_POINT ( 'NONE',  ( -10.00000000000000000, 0.000000000000000000, 1008.000000000000000 ) ) ;
#181 = PERSON_AND_ORGANIZATION_ROLE ( 'design_supplier' ) ;
#182 = ORIENTED_EDGE ( 'NONE', *, *, #93, .T. ) ;
#183 = DIRECTION ( 'NONE',  ( 1.000000000000000000, 0.000000000000000000, 0.000000000000000000 ) ) ;
#184 = DATE_TIME_ROLE ( 'classification_date' ) ;
#185 = CARTESIAN_POINT ( 'NONE',  ( 0.000000000000000000, 0.000000000000000000, 8.000000000000000000 ) ) ;
#186 = PERSON_AND_ORGANIZATION ( #219, #231 ) ;
#187 = DIRECTION ( 'NONE',  ( 1.000000000000000000, 0.000000000000000000, 0.000000000000000000 ) ) ;
#188 = CIRCLE ( 'NONE', #268, 13.00000000000000178 ) ;
#189 = APPROVAL_PERSON_ORGANIZATION ( #68, #10, #210 ) ;
#190 = VERTEX_POINT ( 'NONE', #237 ) ;
#191 = AXIS2_PLACEMENT_3D ( 'NONE', #63, #132, #187 ) ;
#192 = ORIENTED_EDGE ( 'NONE', *, *, #71, .T. ) ;
#193 = VERTEX_POINT ( 'NONE', #209 ) ;
#194 = APPROVAL ( #298, 'NEURÈENÝ' ) ;
#195 = AXIS2_PLACEMENT_3D ( 'NONE', #270, #25, #217 ) ;
#196 = EDGE_LOOP ( 'NONE', ( #75, #14, #182, #266 ) ) ;
#197 = AXIS2_PLACEMENT_3D ( 'NONE', #88, #156, #116 ) ;
#198 = DIRECTION ( 'NONE',  ( 1.000000000000000000, 0.000000000000000000, -0.000000000000000000 ) ) ;
#199 = CALENDAR_DATE ( 2022, 7, 7 ) ;
#200 = FACE_OUTER_BOUND ( 'NONE', #51, .T. ) ;
#201 = EDGE_CURVE ( 'NONE', #166, #193, #220, .T. ) ;
#202 = PRODUCT_DEFINITION_FORMATION_WITH_SPECIFIED_SOURCE ( 'LIBOVOLNÝ', '', #33, .NOT_KNOWN. ) ;
#203 = APPLICATION_PROTOCOL_DEFINITION ( 'international standard', 'config_control_design', 1994, #121 ) ;
#204 = ORIENTED_EDGE ( 'NONE', *, *, #46, .T. ) ;
#205 = CC_DESIGN_SECURITY_CLASSIFICATION ( #215, ( #202 ) ) ;
#206 = APPROVAL_DATE_TIME ( #128, #194 ) ;
#207 = EDGE_LOOP ( 'NONE', ( #140, #100, #165, #72 ) ) ;
#208 = DIRECTION ( 'NONE',  ( 1.000000000000000000, 0.000000000000000000, 0.000000000000000000 ) ) ;
#209 = CARTESIAN_POINT ( 'NONE',  ( 10.20000000000000107, 0.000000000000000000, 7.999999999999992895 ) ) ;
#210 = APPROVAL_ROLE ( '' ) ;
#211 = PLANE ( 'NONE',  #41 ) ;
#212 = DIRECTION ( 'NONE',  ( 0.000000000000000000, 0.000000000000000000, 1.000000000000000000 ) ) ;
#213 = COORDINATED_UNIVERSAL_TIME_OFFSET ( 1, 0, .AHEAD. ) ;
#214 = CARTESIAN_POINT ( 'NONE',  ( 0.000000000000000000, 0.000000000000000000, 8.000000000000000000 ) ) ;
#215 = SECURITY_CLASSIFICATION ( '', '', #86 ) ;
#216 = ORIENTED_EDGE ( 'NONE', *, *, #244, .F. ) ;
#217 = DIRECTION ( 'NONE',  ( 1.000000000000000000, 0.000000000000000000, 0.000000000000000000 ) ) ;
#218 = CARTESIAN_POINT ( 'NONE',  ( 0.000000000000000000, 0.000000000000000000, 1008.000000000000000 ) ) ;
#219 = PERSON ( 'NEURÈENÝ', 'NEURÈENÝ', 'NEURÈENÝ', ('NEURÈENÝ'), ('NEURÈENÝ'), ('NEURÈENÝ') ) ;
#220 = CIRCLE ( 'NONE', #145, 10.20000000000000107 ) ;
#221 = CARTESIAN_POINT ( 'NONE',  ( 10.00000000000000000, 1.224646799147353256E-15, 1008.000000000000000 ) ) ;
#222 = PERSON_AND_ORGANIZATION_ROLE ( 'design_owner' ) ;
#223 = APPLICATION_CONTEXT ( 'configuration controlled 3d designs of mechanical parts and assemblies' ) ;
#224 = EDGE_CURVE ( 'NONE', #281, #190, #122, .T. ) ;
#225 = PLANE ( 'NONE',  #286 ) ;
#226 = EDGE_LOOP ( 'NONE', ( #111, #192 ) ) ;
#227 = DESIGN_CONTEXT ( 'detailed design', #121, 'design' ) ;
#228 = LOCAL_TIME ( 11, 33, 10.00000000000000000, #151 ) ;
#229 = FACE_OUTER_BOUND ( 'NONE', #234, .T. ) ;
#230 = ORIENTED_EDGE ( 'NONE', *, *, #224, .F. ) ;
#231 = ORGANIZATION ( 'NEURÈENÝ', 'NEURÈENÝ', '' ) ;
#232 = FACE_OUTER_BOUND ( 'NONE', #7, .T. ) ;
#233 = APPROVAL_STATUS ( 'not_yet_approved' ) ;
#234 = EDGE_LOOP ( 'NONE', ( #99, #95, #29, #269 ) ) ;
#235 = FACE_OUTER_BOUND ( 'NONE', #24, .T. ) ;
#236 = PERSON_AND_ORGANIZATION_ROLE ( 'classification_officer' ) ;
#237 = CARTESIAN_POINT ( 'NONE',  ( 13.00000000000000178, 1.592040838891559293E-15, 0.000000000000000000 ) ) ;
#238 = AXIS2_PLACEMENT_3D ( 'NONE', #47, #69, #3 ) ;
#239 = CARTESIAN_POINT ( 'NONE',  ( 0.000000000000000000, 0.000000000000000000, 1008.000000000000000 ) ) ;
#240 = CARTESIAN_POINT ( 'NONE',  ( 0.000000000000000000, 0.000000000000000000, 0.000000000000000000 ) ) ;
#241 = CARTESIAN_POINT ( 'NONE',  ( 0.000000000000000000, 0.000000000000000000, 8.199999999999985079 ) ) ;
#242 = UNCERTAINTY_MEASURE_WITH_UNIT (LENGTH_MEASURE( 1.000000000000000082E-05 ), #58, 'distance_accuracy_value', 'NONE');
#243 = AXIS2_PLACEMENT_3D ( 'NONE', #264, #1, #91 ) ;
#244 = EDGE_CURVE ( 'NONE', #190, #281, #5, .T. ) ;
#245 = FACE_OUTER_BOUND ( 'NONE', #196, .T. ) ;
#246 = CARTESIAN_POINT ( 'NONE',  ( 0.000000000000000000, 0.000000000000000000, 8.000000000000000000 ) ) ;
#247 = ORIENTED_EDGE ( 'NONE', *, *, #139, .F. ) ;
#248 = CC_DESIGN_PERSON_AND_ORGANIZATION_ASSIGNMENT ( #133, #236, ( #215 ) ) ;
#249 = APPROVAL_ROLE ( '' ) ;
#250 = APPROVAL ( #83, 'NEURÈENÝ' ) ;
#251 = CALENDAR_DATE ( 2022, 7, 7 ) ;
#252 = CARTESIAN_POINT ( 'NONE',  ( 0.000000000000000000, 0.000000000000000000, 1008.000000000000000 ) ) ;
#253 = CARTESIAN_POINT ( 'NONE',  ( -13.00000000000000178, 0.000000000000000000, 8.000000000000000000 ) ) ;
#254 = VECTOR ( 'NONE', #302, 1000.000000000000000 ) ;
#255 = LOCAL_TIME ( 11, 33, 10.00000000000000000, #280 ) ;
#256 = ORIENTED_EDGE ( 'NONE', *, *, #124, .F. ) ;
#257 =( GEOMETRIC_REPRESENTATION_CONTEXT ( 3 ) GLOBAL_UNCERTAINTY_ASSIGNED_CONTEXT ( ( #242 ) ) GLOBAL_UNIT_ASSIGNED_CONTEXT ( ( #58, #295, #38 ) ) REPRESENTATION_CONTEXT ( 'NONE', 'WORKASPACE' ) );
#258 = FACE_OUTER_BOUND ( 'NONE', #157, .T. ) ;
#259 = APPROVAL_DATE_TIME ( #263, #10 ) ;
#260 = DIRECTION ( 'NONE',  ( -1.000000000000000000, 0.000000000000000000, 0.000000000000000000 ) ) ;
#261 = DIRECTION ( 'NONE',  ( 0.000000000000000000, 0.000000000000000000, 1.000000000000000000 ) ) ;
#262 = ADVANCED_FACE ( 'NONE', ( #23 ), #211, .T. ) ;
#263 = DATE_AND_TIME ( #89, #255 ) ;
#264 = CARTESIAN_POINT ( 'NONE',  ( 0.000000000000000000, 0.000000000000000000, 8.199999999999985079 ) ) ;
#265 = AXIS2_PLACEMENT_3D ( 'NONE', #19, #261, #49 ) ;
#266 = ORIENTED_EDGE ( 'NONE', *, *, #139, .T. ) ;
#267 = ORIENTED_EDGE ( 'NONE', *, *, #81, .F. ) ;
#268 = AXIS2_PLACEMENT_3D ( 'NONE', #160, #67, #85 ) ;
#269 = ORIENTED_EDGE ( 'NONE', *, *, #93, .F. ) ;
#270 = CARTESIAN_POINT ( 'NONE',  ( 0.000000000000000000, 0.000000000000000000, 8.000000000000000000 ) ) ;
#271 = CC_DESIGN_APPROVAL ( #10, ( #215 ) ) ;
#272 = ADVANCED_FACE ( 'NONE', ( #229 ), #125, .T. ) ;
#273 = COORDINATED_UNIVERSAL_TIME_OFFSET ( 1, 0, .AHEAD. ) ;
#274 = APPROVAL_PERSON_ORGANIZATION ( #296, #250, #153 ) ;
#275 = DIRECTION ( 'NONE',  ( -1.000000000000000000, 1.224646799147353207E-16, 0.000000000000000000 ) ) ;
#276 = CYLINDRICAL_SURFACE ( 'NONE', #79, 13.00000000000000178 ) ;
#277 = LINE ( 'NONE', #180, #34 ) ;
#278 = PERSON_AND_ORGANIZATION ( #219, #231 ) ;
#279 = CARTESIAN_POINT ( 'NONE',  ( 13.00000000000000178, 1.592040838891559293E-15, 8.000000000000000000 ) ) ;
#280 = COORDINATED_UNIVERSAL_TIME_OFFSET ( 1, 0, .AHEAD. ) ;
#281 = VERTEX_POINT ( 'NONE', #155 ) ;
#282 = DIRECTION ( 'NONE',  ( 0.000000000000000000, 0.000000000000000000, 1.000000000000000000 ) ) ;
#283 = CARTESIAN_POINT ( 'NONE',  ( 0.000000000000000000, 0.000000000000000000, 0.000000000000000000 ) ) ;
#284 = PERSON_AND_ORGANIZATION_ROLE ( 'creator' ) ;
#285 = CARTESIAN_POINT ( 'NONE',  ( 0.000000000000000000, 0.000000000000000000, 8.199999999999985079 ) ) ;
#286 = AXIS2_PLACEMENT_3D ( 'NONE', #148, #11, #198 ) ;
#287 = VERTEX_POINT ( 'NONE', #221 ) ;
#288 = DIRECTION ( 'NONE',  ( 1.000000000000000000, 0.000000000000000000, -0.000000000000000000 ) ) ;
#289 = ORIENTED_EDGE ( 'NONE', *, *, #115, .F. ) ;
#290 = CYLINDRICAL_SURFACE ( 'NONE', #36, 10.00000000000000000 ) ;
#291 = ADVANCED_FACE ( 'NONE', ( #106 ), #276, .T. ) ;
#292 = VECTOR ( 'NONE', #61, 1000.000000000000000 ) ;
#293 = EDGE_CURVE ( 'NONE', #42, #166, #297, .T. ) ;
#294 = DIRECTION ( 'NONE',  ( -0.000000000000000000, -0.000000000000000000, -1.000000000000000000 ) ) ;
#295 =( NAMED_UNIT ( * ) PLANE_ANGLE_UNIT ( ) SI_UNIT ( $, .RADIAN. ) );
#296 = PERSON_AND_ORGANIZATION ( #219, #231 ) ;
#297 = CIRCLE ( 'NONE', #96, 0.2000000000000005107 ) ;
#298 = APPROVAL_STATUS ( 'not_yet_approved' ) ;
#299 = VERTEX_POINT ( 'NONE', #178 ) ;
#300 = PERSON_AND_ORGANIZATION ( #219, #231 ) ;
#301 = ORIENTED_EDGE ( 'NONE', *, *, #170, .T. ) ;
#302 = DIRECTION ( 'NONE',  ( -0.000000000000000000, -0.000000000000000000, -1.000000000000000000 ) ) ;
#303 = ORIENTED_EDGE ( 'NONE', *, *, #201, .F. ) ;
#304 = LINE ( 'NONE', #163, #254 ) ;
#305 = PERSON_AND_ORGANIZATION ( #219, #231 ) ;
#306 = LINE ( 'NONE', #279, #292 ) ;
#307 = ADVANCED_FACE ( 'NONE', ( #200 ), #225, .F. ) ;
ENDSEC;
END-ISO-10303-21;
