ISO-10303-21;
HEADER;
FILE_DESCRIPTION (( 'STEP AP203' ),
    '1' );
FILE_NAME ('0c77.STEP',
    '2023-02-12T10:30:24',
    ( '' ),
    ( '' ),
    'SwSTEP 2.0',
    'SolidWorks 2019',
    '' );
FILE_SCHEMA (( 'CONFIG_CONTROL_DESIGN' ));
ENDSEC;

DATA;
#1 = FACE_OUTER_BOUND ( 'NONE', #104, .T. ) ;
#2 = AXIS2_PLACEMENT_3D ( 'NONE', #226, #36, #97 ) ;
#3 = APPROVAL_PERSON_ORGANIZATION ( #12, #149, #37 ) ;
#4 = ORIENTED_EDGE ( 'NONE', *, *, #176, .F. ) ;
#5 = VECTOR ( 'NONE', #154, 1000.000000000000000 ) ;
#6 = CC_DESIGN_APPROVAL ( #149, ( #172 ) ) ;
#7 = ORIENTED_EDGE ( 'NONE', *, *, #223, .F. ) ;
#8 = APPLICATION_CONTEXT ( 'configuration controlled 3d designs of mechanical parts and assemblies' ) ;
#9 = AXIS2_PLACEMENT_3D ( 'NONE', #133, #124, #251 ) ;
#10 = CARTESIAN_POINT ( 'NONE',  ( 0.000000000000000000, 0.000000000000000000, 160.0000000000000000 ) ) ;
#11 = APPROVAL_PERSON_ORGANIZATION ( #135, #241, #94 ) ;
#12 = PERSON_AND_ORGANIZATION ( #25, #93 ) ;
#13 = FACE_BOUND ( 'NONE', #145, .T. ) ;
#14 = ADVANCED_FACE ( 'NONE', ( #32 ), #35, .T. ) ;
#15 = DIRECTION ( 'NONE',  ( 1.000000000000000000, 0.000000000000000000, 0.000000000000000000 ) ) ;
#16 = CARTESIAN_POINT ( 'NONE',  ( -16.00000000000000000, 0.000000000000000000, 10.00000000000000000 ) ) ;
#17 = APPROVAL_STATUS ( 'not_yet_approved' ) ;
#18 = CIRCLE ( 'NONE', #188, 12.50000000000000000 ) ;
#19 = CARTESIAN_POINT ( 'NONE',  ( 0.000000000000000000, 0.000000000000000000, 10.00000000000000000 ) ) ;
#20 = PRODUCT_RELATED_PRODUCT_CATEGORY ( 'detail', '', ( #48 ) ) ;
#21 = CYLINDRICAL_SURFACE ( 'NONE', #142, 16.00000000000000000 ) ;
#22 = DIRECTION ( 'NONE',  ( -1.000000000000000000, 0.000000000000000000, 0.000000000000000000 ) ) ;
#23 = CC_DESIGN_SECURITY_CLASSIFICATION ( #224, ( #207 ) ) ;
#24 = LINE ( 'NONE', #136, #161 ) ;
#25 = PERSON ( 'NEURÈENÝ', 'NEURÈENÝ', 'NEURÈENÝ', ('NEURÈENÝ'), ('NEURÈENÝ'), ('NEURÈENÝ') ) ;
#26 = DIRECTION ( 'NONE',  ( 0.000000000000000000, 0.000000000000000000, 1.000000000000000000 ) ) ;
#27 = LOCAL_TIME ( 11, 30, 24.00000000000000000, #164 ) ;
#28 = VERTEX_POINT ( 'NONE', #205 ) ;
#29 = VERTEX_POINT ( 'NONE', #171 ) ;
#30 = DIRECTION ( 'NONE',  ( 0.000000000000000000, 0.000000000000000000, 1.000000000000000000 ) ) ;
#31 = COORDINATED_UNIVERSAL_TIME_OFFSET ( 1, 0, .AHEAD. ) ;
#32 = FACE_OUTER_BOUND ( 'NONE', #129, .T. ) ;
#33 = ADVANCED_FACE ( 'NONE', ( #68 ), #174, .T. ) ;
#34 = PERSON_AND_ORGANIZATION ( #25, #93 ) ;
#35 = CYLINDRICAL_SURFACE ( 'NONE', #9, 12.50000000000000000 ) ;
#36 = DIRECTION ( 'NONE',  ( 0.000000000000000000, 0.000000000000000000, 1.000000000000000000 ) ) ;
#37 = APPROVAL_ROLE ( '' ) ;
#38 = EDGE_CURVE ( 'NONE', #92, #235, #152, .T. ) ;
#39 = ORIENTED_EDGE ( 'NONE', *, *, #110, .F. ) ;
#40 = CALENDAR_DATE ( 2023, 12, 2 ) ;
#41 = DIRECTION ( 'NONE',  ( -1.000000000000000000, 0.000000000000000000, 0.000000000000000000 ) ) ;
#42 = APPROVAL_PERSON_ORGANIZATION ( #34, #61, #86 ) ;
#43 = EDGE_CURVE ( 'NONE', #81, #29, #74, .T. ) ;
#44 = AXIS2_PLACEMENT_3D ( 'NONE', #206, #54, #109 ) ;
#45 = EDGE_LOOP ( 'NONE', ( #247, #243 ) ) ;
#46 = ORIENTED_EDGE ( 'NONE', *, *, #38, .F. ) ;
#47 = ADVANCED_FACE ( 'NONE', ( #13, #114 ), #87, .T. ) ;
#48 = PRODUCT ( '0c77', '0c77', '', ( #150 ) ) ;
#49 = CC_DESIGN_APPROVAL ( #241, ( #207 ) ) ;
#50 = ORIENTED_EDGE ( 'NONE', *, *, #43, .T. ) ;
#51 = MANIFOLD_SOLID_BREP ( 'Pøidat vysunutím3', #229 ) ;
#52 = PERSON_AND_ORGANIZATION ( #25, #93 ) ;
#53 = APPLICATION_PROTOCOL_DEFINITION ( 'international standard', 'config_control_design', 1994, #115 ) ;
#54 = DIRECTION ( 'NONE',  ( -0.000000000000000000, -0.000000000000000000, -1.000000000000000000 ) ) ;
#55 = DIRECTION ( 'NONE',  ( 0.000000000000000000, 0.000000000000000000, 1.000000000000000000 ) ) ;
#56 = DATE_TIME_ROLE ( 'classification_date' ) ;
#57 = DIRECTION ( 'NONE',  ( 0.000000000000000000, 0.000000000000000000, 1.000000000000000000 ) ) ;
#58 = CALENDAR_DATE ( 2023, 12, 2 ) ;
#59 = CC_DESIGN_PERSON_AND_ORGANIZATION_ASSIGNMENT ( #73, #213, ( #172 ) ) ;
#60 = CARTESIAN_POINT ( 'NONE',  ( 12.50000000000000000, 1.530808498934191521E-15, 160.0000000000000000 ) ) ;
#61 = APPROVAL ( #17, 'NEURÈENÝ' ) ;
#62 = CC_DESIGN_PERSON_AND_ORGANIZATION_ASSIGNMENT ( #225, #91, ( #48 ) ) ;
#63 = ORIENTED_EDGE ( 'NONE', *, *, #102, .T. ) ;
#64 = ORIENTED_EDGE ( 'NONE', *, *, #102, .F. ) ;
#65 = SHAPE_DEFINITION_REPRESENTATION ( #128, #122 ) ;
#66 = LINE ( 'NONE', #16, #125 ) ;
#67 = COORDINATED_UNIVERSAL_TIME_OFFSET ( 1, 0, .AHEAD. ) ;
#68 = FACE_OUTER_BOUND ( 'NONE', #200, .T. ) ;
#69 = CALENDAR_DATE ( 2023, 12, 2 ) ;
#70 = VERTEX_POINT ( 'NONE', #185 ) ;
#71 = APPROVAL_DATE_TIME ( #132, #149 ) ;
#72 = CARTESIAN_POINT ( 'NONE',  ( 0.000000000000000000, 0.000000000000000000, 10.00000000000000000 ) ) ;
#73 = PERSON_AND_ORGANIZATION ( #25, #93 ) ;
#74 = CIRCLE ( 'NONE', #199, 12.50000000000000000 ) ;
#75 = DIRECTION ( 'NONE',  ( -0.000000000000000000, -0.000000000000000000, -1.000000000000000000 ) ) ;
#76 = EDGE_CURVE ( 'NONE', #235, #28, #66, .T. ) ;
#77 = FACE_OUTER_BOUND ( 'NONE', #143, .T. ) ;
#78 = CYLINDRICAL_SURFACE ( 'NONE', #238, 12.50000000000000000 ) ;
#79 = DIRECTION ( 'NONE',  ( 0.000000000000000000, 0.000000000000000000, 1.000000000000000000 ) ) ;
#80 = EDGE_CURVE ( 'NONE', #29, #81, #194, .T. ) ;
#81 = VERTEX_POINT ( 'NONE', #212 ) ;
#82 = ORIENTED_EDGE ( 'NONE', *, *, #76, .T. ) ;
#83 = LOCAL_TIME ( 11, 30, 24.00000000000000000, #67 ) ;
#84 = ORIENTED_EDGE ( 'NONE', *, *, #255, .F. ) ;
#85 = CARTESIAN_POINT ( 'NONE',  ( 0.000000000000000000, 0.000000000000000000, 160.0000000000000000 ) ) ;
#86 = APPROVAL_ROLE ( '' ) ;
#87 = PLANE ( 'NONE',  #236 ) ;
#88 = DATE_AND_TIME ( #169, #27 ) ;
#89 = EDGE_CURVE ( 'NONE', #28, #105, #203, .T. ) ;
#90 = DIRECTION ( 'NONE',  ( 1.000000000000000000, 0.000000000000000000, 0.000000000000000000 ) ) ;
#91 = PERSON_AND_ORGANIZATION_ROLE ( 'design_owner' ) ;
#92 = VERTEX_POINT ( 'NONE', #146 ) ;
#93 = ORGANIZATION ( 'NEURÈENÝ', 'NEURÈENÝ', '' ) ;
#94 = APPROVAL_ROLE ( '' ) ;
#95 = EDGE_LOOP ( 'NONE', ( #63, #162 ) ) ;
#96 = CALENDAR_DATE ( 2023, 12, 2 ) ;
#97 = DIRECTION ( 'NONE',  ( 1.000000000000000000, 0.000000000000000000, 0.000000000000000000 ) ) ;
#98 = ADVANCED_FACE ( 'NONE', ( #222 ), #183, .T. ) ;
#99 = CARTESIAN_POINT ( 'NONE',  ( 0.000000000000000000, 0.000000000000000000, 160.0000000000000000 ) ) ;
#100 = CARTESIAN_POINT ( 'NONE',  ( 0.000000000000000000, 0.000000000000000000, 0.000000000000000000 ) ) ;
#101 = CARTESIAN_POINT ( 'NONE',  ( 0.000000000000000000, 0.000000000000000000, 160.0000000000000000 ) ) ;
#102 = EDGE_CURVE ( 'NONE', #70, #181, #18, .T. ) ;
#103 = LOCAL_TIME ( 11, 30, 24.00000000000000000, #31 ) ;
#104 = EDGE_LOOP ( 'NONE', ( #112, #39 ) ) ;
#105 = VERTEX_POINT ( 'NONE', #167 ) ;
#106 = CC_DESIGN_DATE_AND_TIME_ASSIGNMENT ( #221, #56, ( #224 ) ) ;
#107 = DIRECTION ( 'NONE',  ( 1.000000000000000000, 0.000000000000000000, 0.000000000000000000 ) ) ;
#108 = PERSON_AND_ORGANIZATION_ROLE ( 'creator' ) ;
#109 = DIRECTION ( 'NONE',  ( -1.000000000000000000, 0.000000000000000000, 0.000000000000000000 ) ) ;
#110 = EDGE_CURVE ( 'NONE', #105, #28, #113, .T. ) ;
#111 = DIRECTION ( 'NONE',  ( 1.000000000000000000, 0.000000000000000000, 0.000000000000000000 ) ) ;
#112 = ORIENTED_EDGE ( 'NONE', *, *, #89, .F. ) ;
#113 = CIRCLE ( 'NONE', #2, 16.00000000000000000 ) ;
#114 = FACE_OUTER_BOUND ( 'NONE', #45, .T. ) ;
#115 = APPLICATION_CONTEXT ( 'configuration controlled 3d designs of mechanical parts and assemblies' ) ;
#116 = PLANE ( 'NONE',  #119 ) ;
#117 = ADVANCED_FACE ( 'NONE', ( #77 ), #78, .T. ) ;
#118 = LINE ( 'NONE', #60, #5 ) ;
#119 = AXIS2_PLACEMENT_3D ( 'NONE', #100, #79, #141 ) ;
#120 = ORIENTED_EDGE ( 'NONE', *, *, #80, .T. ) ;
#121 = ORIENTED_EDGE ( 'NONE', *, *, #76, .F. ) ;
#122 = ADVANCED_BREP_SHAPE_REPRESENTATION ( '0c77', ( #51, #179 ), #216 ) ;
#123 = DIRECTION ( 'NONE',  ( 1.000000000000000000, 0.000000000000000000, 0.000000000000000000 ) ) ;
#124 = DIRECTION ( 'NONE',  ( -0.000000000000000000, -0.000000000000000000, -1.000000000000000000 ) ) ;
#125 = VECTOR ( 'NONE', #187, 1000.000000000000000 ) ;
#126 = VECTOR ( 'NONE', #75, 1000.000000000000000 ) ;
#127 = CC_DESIGN_APPROVAL ( #61, ( #224 ) ) ;
#128 = PRODUCT_DEFINITION_SHAPE ( 'NONE', 'NONE',  #172 ) ;
#129 = EDGE_LOOP ( 'NONE', ( #249, #64, #165, #50 ) ) ;
#130 = SECURITY_CLASSIFICATION_LEVEL ( 'unclassified' ) ;
#131 = EDGE_LOOP ( 'NONE', ( #46, #242, #144, #121 ) ) ;
#132 = DATE_AND_TIME ( #69, #170 ) ;
#133 = CARTESIAN_POINT ( 'NONE',  ( 0.000000000000000000, 0.000000000000000000, 160.0000000000000000 ) ) ;
#134 = DIRECTION ( 'NONE',  ( 1.000000000000000000, 0.000000000000000000, 0.000000000000000000 ) ) ;
#135 = PERSON_AND_ORGANIZATION ( #25, #93 ) ;
#136 = CARTESIAN_POINT ( 'NONE',  ( 16.00000000000000000, 1.959434878635765131E-15, 10.00000000000000000 ) ) ;
#137 = APPLICATION_PROTOCOL_DEFINITION ( 'international standard', 'config_control_design', 1994, #8 ) ;
#138 = CC_DESIGN_PERSON_AND_ORGANIZATION_ASSIGNMENT ( #209, #246, ( #224 ) ) ;
#139 = DIRECTION ( 'NONE',  ( -0.000000000000000000, -0.000000000000000000, -1.000000000000000000 ) ) ;
#140 = CIRCLE ( 'NONE', #196, 12.50000000000000000 ) ;
#141 = DIRECTION ( 'NONE',  ( 1.000000000000000000, 0.000000000000000000, -0.000000000000000000 ) ) ;
#142 = AXIS2_PLACEMENT_3D ( 'NONE', #193, #177, #22 ) ;
#143 = EDGE_LOOP ( 'NONE', ( #84, #219, #120, #202 ) ) ;
#144 = ORIENTED_EDGE ( 'NONE', *, *, #110, .T. ) ;
#145 = EDGE_LOOP ( 'NONE', ( #240, #239 ) ) ;
#146 = CARTESIAN_POINT ( 'NONE',  ( 16.00000000000000000, 1.959434878635765131E-15, 10.00000000000000000 ) ) ;
#147 = DIRECTION ( 'NONE',  ( 0.000000000000000000, 0.000000000000000000, 1.000000000000000000 ) ) ;
#148 = DIRECTION ( 'NONE',  ( 0.000000000000000000, 0.000000000000000000, 1.000000000000000000 ) ) ;
#149 = APPROVAL ( #253, 'NEURÈENÝ' ) ;
#150 = MECHANICAL_CONTEXT ( 'NONE', #8, 'mechanical' ) ;
#151 = CARTESIAN_POINT ( 'NONE',  ( 0.000000000000000000, 0.000000000000000000, 10.00000000000000000 ) ) ;
#152 = CIRCLE ( 'NONE', #182, 16.00000000000000000 ) ;
#153 = PERSON_AND_ORGANIZATION_ROLE ( 'design_supplier' ) ;
#154 = DIRECTION ( 'NONE',  ( -0.000000000000000000, -0.000000000000000000, -1.000000000000000000 ) ) ;
#155 = UNCERTAINTY_MEASURE_WITH_UNIT (LENGTH_MEASURE( 1.000000000000000082E-05 ), #232, 'distance_accuracy_value', 'NONE');
#156 = CARTESIAN_POINT ( 'NONE',  ( -16.00000000000000000, 0.000000000000000000, 10.00000000000000000 ) ) ;
#157 = EDGE_CURVE ( 'NONE', #70, #81, #214, .T. ) ;
#158 = CARTESIAN_POINT ( 'NONE',  ( 0.000000000000000000, 0.000000000000000000, 10.00000000000000000 ) ) ;
#159 = CARTESIAN_POINT ( 'NONE',  ( -12.50000000000000000, 0.000000000000000000, 160.0000000000000000 ) ) ;
#160 = AXIS2_PLACEMENT_3D ( 'NONE', #158, #57, #192 ) ;
#161 = VECTOR ( 'NONE', #139, 1000.000000000000000 ) ;
#162 = ORIENTED_EDGE ( 'NONE', *, *, #255, .T. ) ;
#163 = DIRECTION ( 'NONE',  ( 0.000000000000000000, 0.000000000000000000, 1.000000000000000000 ) ) ;
#164 = COORDINATED_UNIVERSAL_TIME_OFFSET ( 1, 0, .AHEAD. ) ;
#165 = ORIENTED_EDGE ( 'NONE', *, *, #157, .T. ) ;
#166 = APPROVAL_STATUS ( 'not_yet_approved' ) ;
#167 = CARTESIAN_POINT ( 'NONE',  ( 16.00000000000000000, 1.959434878635765131E-15, 0.000000000000000000 ) ) ;
#168 = AXIS2_PLACEMENT_3D ( 'NONE', #151, #55, #123 ) ;
#169 = CALENDAR_DATE ( 2023, 12, 2 ) ;
#170 = LOCAL_TIME ( 11, 30, 24.00000000000000000, #186 ) ;
#171 = CARTESIAN_POINT ( 'NONE',  ( 12.50000000000000000, 1.530808498934191521E-15, 10.00000000000000000 ) ) ;
#172 = PRODUCT_DEFINITION ( 'NEZNÁMÝ', '', #207, #197 ) ;
#173 = DATE_AND_TIME ( #40, #83 ) ;
#174 = CYLINDRICAL_SURFACE ( 'NONE', #44, 16.00000000000000000 ) ;
#175 =( NAMED_UNIT ( * ) PLANE_ANGLE_UNIT ( ) SI_UNIT ( $, .RADIAN. ) );
#176 = EDGE_CURVE ( 'NONE', #92, #105, #24, .T. ) ;
#177 = DIRECTION ( 'NONE',  ( -0.000000000000000000, -0.000000000000000000, -1.000000000000000000 ) ) ;
#178 = DIRECTION ( 'NONE',  ( -0.000000000000000000, -0.000000000000000000, -1.000000000000000000 ) ) ;
#179 = AXIS2_PLACEMENT_3D ( 'NONE', #198, #26, #15 ) ;
#180 = CC_DESIGN_PERSON_AND_ORGANIZATION_ASSIGNMENT ( #191, #153, ( #207 ) ) ;
#181 = VERTEX_POINT ( 'NONE', #234 ) ;
#182 = AXIS2_PLACEMENT_3D ( 'NONE', #210, #148, #111 ) ;
#183 = PLANE ( 'NONE',  #218 ) ;
#184 = DIRECTION ( 'NONE',  ( 0.000000000000000000, 0.000000000000000000, 1.000000000000000000 ) ) ;
#185 = CARTESIAN_POINT ( 'NONE',  ( -12.50000000000000000, 0.000000000000000000, 160.0000000000000000 ) ) ;
#186 = COORDINATED_UNIVERSAL_TIME_OFFSET ( 1, 0, .AHEAD. ) ;
#187 = DIRECTION ( 'NONE',  ( -0.000000000000000000, -0.000000000000000000, -1.000000000000000000 ) ) ;
#188 = AXIS2_PLACEMENT_3D ( 'NONE', #85, #163, #90 ) ;
#189 = DATE_TIME_ROLE ( 'creation_date' ) ;
#190 = DIRECTION ( 'NONE',  ( 0.000000000000000000, 0.000000000000000000, 1.000000000000000000 ) ) ;
#191 = PERSON_AND_ORGANIZATION ( #25, #93 ) ;
#192 = DIRECTION ( 'NONE',  ( 1.000000000000000000, 0.000000000000000000, 0.000000000000000000 ) ) ;
#193 = CARTESIAN_POINT ( 'NONE',  ( 0.000000000000000000, 0.000000000000000000, 10.00000000000000000 ) ) ;
#194 = CIRCLE ( 'NONE', #168, 12.50000000000000000 ) ;
#195 = FACE_OUTER_BOUND ( 'NONE', #131, .T. ) ;
#196 = AXIS2_PLACEMENT_3D ( 'NONE', #99, #254, #134 ) ;
#197 = DESIGN_CONTEXT ( 'detailed design', #115, 'design' ) ;
#198 = CARTESIAN_POINT ( 'NONE',  ( 0.000000000000000000, 0.000000000000000000, 0.000000000000000000 ) ) ;
#199 = AXIS2_PLACEMENT_3D ( 'NONE', #19, #184, #227 ) ;
#200 = EDGE_LOOP ( 'NONE', ( #4, #7, #82, #220 ) ) ;
#201 = LOCAL_TIME ( 11, 30, 24.00000000000000000, #230 ) ;
#202 = ORIENTED_EDGE ( 'NONE', *, *, #157, .F. ) ;
#203 = CIRCLE ( 'NONE', #233, 16.00000000000000000 ) ;
#204 = ADVANCED_FACE ( 'NONE', ( #1 ), #116, .F. ) ;
#205 = CARTESIAN_POINT ( 'NONE',  ( -16.00000000000000000, 0.000000000000000000, 0.000000000000000000 ) ) ;
#206 = CARTESIAN_POINT ( 'NONE',  ( 0.000000000000000000, 0.000000000000000000, 10.00000000000000000 ) ) ;
#207 = PRODUCT_DEFINITION_FORMATION_WITH_SPECIFIED_SOURCE ( 'LIBOVOLNÝ', '', #48, .NOT_KNOWN. ) ;
#208 = DIRECTION ( 'NONE',  ( 1.000000000000000000, 0.000000000000000000, -0.000000000000000000 ) ) ;
#209 = PERSON_AND_ORGANIZATION ( #25, #93 ) ;
#210 = CARTESIAN_POINT ( 'NONE',  ( 0.000000000000000000, 0.000000000000000000, 10.00000000000000000 ) ) ;
#211 = DATE_AND_TIME ( #96, #103 ) ;
#212 = CARTESIAN_POINT ( 'NONE',  ( -12.50000000000000000, 0.000000000000000000, 10.00000000000000000 ) ) ;
#213 = PERSON_AND_ORGANIZATION_ROLE ( 'creator' ) ;
#214 = LINE ( 'NONE', #159, #126 ) ;
#215 = EDGE_CURVE ( 'NONE', #181, #29, #118, .T. ) ;
#216 =( GEOMETRIC_REPRESENTATION_CONTEXT ( 3 ) GLOBAL_UNCERTAINTY_ASSIGNED_CONTEXT ( ( #155 ) ) GLOBAL_UNIT_ASSIGNED_CONTEXT ( ( #232, #175, #231 ) ) REPRESENTATION_CONTEXT ( 'NONE', 'WORKASPACE' ) );
#217 = CC_DESIGN_DATE_AND_TIME_ASSIGNMENT ( #211, #189, ( #172 ) ) ;
#218 = AXIS2_PLACEMENT_3D ( 'NONE', #10, #147, #208 ) ;
#219 = ORIENTED_EDGE ( 'NONE', *, *, #215, .T. ) ;
#220 = ORIENTED_EDGE ( 'NONE', *, *, #89, .T. ) ;
#221 = DATE_AND_TIME ( #58, #201 ) ;
#222 = FACE_OUTER_BOUND ( 'NONE', #95, .T. ) ;
#223 = EDGE_CURVE ( 'NONE', #235, #92, #248, .T. ) ;
#224 = SECURITY_CLASSIFICATION ( '', '', #130 ) ;
#225 = PERSON_AND_ORGANIZATION ( #25, #93 ) ;
#226 = CARTESIAN_POINT ( 'NONE',  ( 0.000000000000000000, 0.000000000000000000, 0.000000000000000000 ) ) ;
#227 = DIRECTION ( 'NONE',  ( 1.000000000000000000, 0.000000000000000000, 0.000000000000000000 ) ) ;
#228 = CARTESIAN_POINT ( 'NONE',  ( 0.000000000000000000, 0.000000000000000000, 0.000000000000000000 ) ) ;
#229 = CLOSED_SHELL ( 'NONE', ( #117, #237, #33, #47, #204, #14, #98 ) ) ;
#230 = COORDINATED_UNIVERSAL_TIME_OFFSET ( 1, 0, .AHEAD. ) ;
#231 =( NAMED_UNIT ( * ) SI_UNIT ( $, .STERADIAN. ) SOLID_ANGLE_UNIT ( ) );
#232 =( LENGTH_UNIT ( ) NAMED_UNIT ( * ) SI_UNIT ( .MILLI., .METRE. ) );
#233 = AXIS2_PLACEMENT_3D ( 'NONE', #228, #30, #107 ) ;
#234 = CARTESIAN_POINT ( 'NONE',  ( 12.50000000000000000, 1.530808498934191521E-15, 160.0000000000000000 ) ) ;
#235 = VERTEX_POINT ( 'NONE', #156 ) ;
#236 = AXIS2_PLACEMENT_3D ( 'NONE', #72, #190, #245 ) ;
#237 = ADVANCED_FACE ( 'NONE', ( #195 ), #21, .T. ) ;
#238 = AXIS2_PLACEMENT_3D ( 'NONE', #101, #178, #41 ) ;
#239 = ORIENTED_EDGE ( 'NONE', *, *, #80, .F. ) ;
#240 = ORIENTED_EDGE ( 'NONE', *, *, #43, .F. ) ;
#241 = APPROVAL ( #166, 'NEURÈENÝ' ) ;
#242 = ORIENTED_EDGE ( 'NONE', *, *, #176, .T. ) ;
#243 = ORIENTED_EDGE ( 'NONE', *, *, #38, .T. ) ;
#244 = APPROVAL_DATE_TIME ( #88, #61 ) ;
#245 = DIRECTION ( 'NONE',  ( 1.000000000000000000, 0.000000000000000000, -0.000000000000000000 ) ) ;
#246 = PERSON_AND_ORGANIZATION_ROLE ( 'classification_officer' ) ;
#247 = ORIENTED_EDGE ( 'NONE', *, *, #223, .T. ) ;
#248 = CIRCLE ( 'NONE', #160, 16.00000000000000000 ) ;
#249 = ORIENTED_EDGE ( 'NONE', *, *, #215, .F. ) ;
#250 = APPROVAL_DATE_TIME ( #173, #241 ) ;
#251 = DIRECTION ( 'NONE',  ( -1.000000000000000000, 0.000000000000000000, 0.000000000000000000 ) ) ;
#252 = CC_DESIGN_PERSON_AND_ORGANIZATION_ASSIGNMENT ( #52, #108, ( #207 ) ) ;
#253 = APPROVAL_STATUS ( 'not_yet_approved' ) ;
#254 = DIRECTION ( 'NONE',  ( 0.000000000000000000, 0.000000000000000000, 1.000000000000000000 ) ) ;
#255 = EDGE_CURVE ( 'NONE', #181, #70, #140, .T. ) ;
ENDSEC;
END-ISO-10303-21;
