ISO-10303-21;
HEADER;
FILE_DESCRIPTION (( 'STEP AP203' ),
    '1' );
FILE_NAME ('e39f.STEP',
    '2023-02-12T10:41:22',
    ( '' ),
    ( '' ),
    'SwSTEP 2.0',
    'SolidWorks 2019',
    '' );
FILE_SCHEMA (( 'CONFIG_CONTROL_DESIGN' ));
ENDSEC;

DATA;
#1 = DIRECTION ( 'NONE',  ( 1.000000000000000000, 0.000000000000000000, -0.000000000000000000 ) ) ;
#2 = CIRCLE ( 'NONE', #136, 12.00000000000000178 ) ;
#3 = FACE_OUTER_BOUND ( 'NONE', #83, .T. ) ;
#4 = FACE_OUTER_BOUND ( 'NONE', #227, .T. ) ;
#5 = DIRECTION ( 'NONE',  ( 0.000000000000000000, 0.000000000000000000, 1.000000000000000000 ) ) ;
#6 = DIRECTION ( 'NONE',  ( -0.000000000000000000, -0.000000000000000000, -1.000000000000000000 ) ) ;
#7 = AXIS2_PLACEMENT_3D ( 'NONE', #240, #56, #122 ) ;
#8 = CARTESIAN_POINT ( 'NONE',  ( 0.000000000000000000, 0.000000000000000000, 0.000000000000000000 ) ) ;
#9 = PERSON_AND_ORGANIZATION ( #202, #15 ) ;
#10 = VERTEX_POINT ( 'NONE', #64 ) ;
#11 = APPROVAL_DATE_TIME ( #185, #79 ) ;
#12 = ORIENTED_EDGE ( 'NONE', *, *, #135, .F. ) ;
#13 = ORIENTED_EDGE ( 'NONE', *, *, #132, .F. ) ;
#14 = CALENDAR_DATE ( 2023, 12, 2 ) ;
#15 = ORGANIZATION ( 'NEURÈENÝ', 'NEURÈENÝ', '' ) ;
#16 = APPROVAL_STATUS ( 'not_yet_approved' ) ;
#17 = DIRECTION ( 'NONE',  ( 1.000000000000000000, 0.000000000000000000, 0.000000000000000000 ) ) ;
#18 = PERSON_AND_ORGANIZATION_ROLE ( 'design_owner' ) ;
#19 = CC_DESIGN_PERSON_AND_ORGANIZATION_ASSIGNMENT ( #93, #244, ( #199 ) ) ;
#20 = LINE ( 'NONE', #71, #210 ) ;
#21 = FACE_BOUND ( 'NONE', #246, .T. ) ;
#22 =( LENGTH_UNIT ( ) NAMED_UNIT ( * ) SI_UNIT ( .MILLI., .METRE. ) );
#23 = FACE_OUTER_BOUND ( 'NONE', #230, .T. ) ;
#24 = AXIS2_PLACEMENT_3D ( 'NONE', #175, #51, #193 ) ;
#25 = APPROVAL_PERSON_ORGANIZATION ( #34, #113, #183 ) ;
#26 = APPLICATION_PROTOCOL_DEFINITION ( 'international standard', 'config_control_design', 1994, #176 ) ;
#27 = ORIENTED_EDGE ( 'NONE', *, *, #37, .T. ) ;
#28 = VERTEX_POINT ( 'NONE', #187 ) ;
#29 = PERSON_AND_ORGANIZATION ( #202, #15 ) ;
#30 = VERTEX_POINT ( 'NONE', #147 ) ;
#31 = ORIENTED_EDGE ( 'NONE', *, *, #243, .F. ) ;
#32 = EDGE_CURVE ( 'NONE', #250, #168, #237, .T. ) ;
#33 = DATE_TIME_ROLE ( 'creation_date' ) ;
#34 = PERSON_AND_ORGANIZATION ( #202, #15 ) ;
#35 = CARTESIAN_POINT ( 'NONE',  ( 0.000000000000000000, 0.000000000000000000, 200.0000000000000000 ) ) ;
#36 = FACE_OUTER_BOUND ( 'NONE', #206, .T. ) ;
#37 = EDGE_CURVE ( 'NONE', #168, #250, #251, .T. ) ;
#38 = LINE ( 'NONE', #182, #241 ) ;
#39 = PRODUCT_RELATED_PRODUCT_CATEGORY ( 'detail', '', ( #190 ) ) ;
#40 = APPROVAL_ROLE ( '' ) ;
#41 = EDGE_CURVE ( 'NONE', #189, #30, #247, .T. ) ;
#42 = CIRCLE ( 'NONE', #84, 9.000000000000000000 ) ;
#43 = ORIENTED_EDGE ( 'NONE', *, *, #180, .F. ) ;
#44 = ORIENTED_EDGE ( 'NONE', *, *, #99, .F. ) ;
#45 = EDGE_LOOP ( 'NONE', ( #166, #90 ) ) ;
#46 = CIRCLE ( 'NONE', #54, 9.000000000000000000 ) ;
#47 = EDGE_CURVE ( 'NONE', #10, #28, #2, .T. ) ;
#48 = DIRECTION ( 'NONE',  ( 1.000000000000000000, 0.000000000000000000, 0.000000000000000000 ) ) ;
#49 = CALENDAR_DATE ( 2023, 12, 2 ) ;
#50 = AXIS2_PLACEMENT_3D ( 'NONE', #186, #245, #232 ) ;
#51 = DIRECTION ( 'NONE',  ( 0.000000000000000000, 0.000000000000000000, 1.000000000000000000 ) ) ;
#52 = FACE_OUTER_BOUND ( 'NONE', #45, .T. ) ;
#53 = CC_DESIGN_PERSON_AND_ORGANIZATION_ASSIGNMENT ( #80, #233, ( #62 ) ) ;
#54 = AXIS2_PLACEMENT_3D ( 'NONE', #236, #96, #17 ) ;
#55 = CARTESIAN_POINT ( 'NONE',  ( 0.000000000000000000, 0.000000000000000000, 7.000000000000000000 ) ) ;
#56 = DIRECTION ( 'NONE',  ( -0.000000000000000000, -0.000000000000000000, -1.000000000000000000 ) ) ;
#57 = DIRECTION ( 'NONE',  ( 0.000000000000000000, 0.000000000000000000, 1.000000000000000000 ) ) ;
#58 = CARTESIAN_POINT ( 'NONE',  ( 9.000000000000000000, 1.102182119232617714E-15, 200.0000000000000000 ) ) ;
#59 = PERSON_AND_ORGANIZATION ( #202, #15 ) ;
#60 = DATE_AND_TIME ( #49, #196 ) ;
#61 = CIRCLE ( 'NONE', #97, 9.000000000000000000 ) ;
#62 = SECURITY_CLASSIFICATION ( '', '', #63 ) ;
#63 = SECURITY_CLASSIFICATION_LEVEL ( 'unclassified' ) ;
#64 = CARTESIAN_POINT ( 'NONE',  ( -12.00000000000000178, 0.000000000000000000, 0.000000000000000000 ) ) ;
#65 = ORIENTED_EDGE ( 'NONE', *, *, #32, .F. ) ;
#66 = CC_DESIGN_PERSON_AND_ORGANIZATION_ASSIGNMENT ( #9, #18, ( #190 ) ) ;
#67 = ORIENTED_EDGE ( 'NONE', *, *, #222, .F. ) ;
#68 =( GEOMETRIC_REPRESENTATION_CONTEXT ( 3 ) GLOBAL_UNCERTAINTY_ASSIGNED_CONTEXT ( ( #224 ) ) GLOBAL_UNIT_ASSIGNED_CONTEXT ( ( #22, #219, #124 ) ) REPRESENTATION_CONTEXT ( 'NONE', 'WORKASPACE' ) );
#69 = ORIENTED_EDGE ( 'NONE', *, *, #222, .T. ) ;
#70 = MANIFOLD_SOLID_BREP ( 'Pøidat vysunutím3', #220 ) ;
#71 = CARTESIAN_POINT ( 'NONE',  ( 12.00000000000000178, 1.469576158976824144E-15, 7.000000000000000000 ) ) ;
#72 = APPLICATION_CONTEXT ( 'configuration controlled 3d designs of mechanical parts and assemblies' ) ;
#73 = DIRECTION ( 'NONE',  ( 0.000000000000000000, 0.000000000000000000, 1.000000000000000000 ) ) ;
#74 = LINE ( 'NONE', #143, #156 ) ;
#75 = AXIS2_PLACEMENT_3D ( 'NONE', #229, #89, #170 ) ;
#76 = CYLINDRICAL_SURFACE ( 'NONE', #85, 9.000000000000000000 ) ;
#77 = DIRECTION ( 'NONE',  ( -0.000000000000000000, -0.000000000000000000, -1.000000000000000000 ) ) ;
#78 = CARTESIAN_POINT ( 'NONE',  ( 0.000000000000000000, 0.000000000000000000, 7.000000000000000000 ) ) ;
#79 = APPROVAL ( #16, 'NEURÈENÝ' ) ;
#80 = PERSON_AND_ORGANIZATION ( #202, #15 ) ;
#81 = VERTEX_POINT ( 'NONE', #92 ) ;
#82 = APPROVAL_DATE_TIME ( #215, #205 ) ;
#83 = EDGE_LOOP ( 'NONE', ( #204, #249, #212, #12 ) ) ;
#84 = AXIS2_PLACEMENT_3D ( 'NONE', #104, #101, #160 ) ;
#85 = AXIS2_PLACEMENT_3D ( 'NONE', #218, #162, #138 ) ;
#86 = CC_DESIGN_APPROVAL ( #205, ( #91 ) ) ;
#87 = CC_DESIGN_PERSON_AND_ORGANIZATION_ASSIGNMENT ( #59, #223, ( #91 ) ) ;
#88 = ORIENTED_EDGE ( 'NONE', *, *, #99, .T. ) ;
#89 = DIRECTION ( 'NONE',  ( 0.000000000000000000, 0.000000000000000000, 1.000000000000000000 ) ) ;
#90 = ORIENTED_EDGE ( 'NONE', *, *, #110, .T. ) ;
#91 = PRODUCT_DEFINITION_FORMATION_WITH_SPECIFIED_SOURCE ( 'LIBOVOLNÝ', '', #190, .NOT_KNOWN. ) ;
#92 = CARTESIAN_POINT ( 'NONE',  ( -9.000000000000000000, 0.000000000000000000, 200.0000000000000000 ) ) ;
#93 = PERSON_AND_ORGANIZATION ( #202, #15 ) ;
#94 = PRODUCT_DEFINITION_SHAPE ( 'NONE', 'NONE',  #199 ) ;
#95 = APPLICATION_PROTOCOL_DEFINITION ( 'international standard', 'config_control_design', 1994, #72 ) ;
#96 = DIRECTION ( 'NONE',  ( 0.000000000000000000, 0.000000000000000000, 1.000000000000000000 ) ) ;
#97 = AXIS2_PLACEMENT_3D ( 'NONE', #105, #57, #142 ) ;
#98 = LOCAL_TIME ( 11, 41, 22.00000000000000000, #165 ) ;
#99 = EDGE_CURVE ( 'NONE', #28, #10, #214, .T. ) ;
#100 = DIRECTION ( 'NONE',  ( -0.000000000000000000, -0.000000000000000000, -1.000000000000000000 ) ) ;
#101 = DIRECTION ( 'NONE',  ( 0.000000000000000000, 0.000000000000000000, 1.000000000000000000 ) ) ;
#102 = AXIS2_PLACEMENT_3D ( 'NONE', #78, #181, #139 ) ;
#103 = CARTESIAN_POINT ( 'NONE',  ( 12.00000000000000178, 1.469576158976824144E-15, 7.000000000000000000 ) ) ;
#104 = CARTESIAN_POINT ( 'NONE',  ( 0.000000000000000000, 0.000000000000000000, 200.0000000000000000 ) ) ;
#105 = CARTESIAN_POINT ( 'NONE',  ( 0.000000000000000000, 0.000000000000000000, 7.000000000000000000 ) ) ;
#106 = ADVANCED_BREP_SHAPE_REPRESENTATION ( 'e39f', ( #70, #50 ), #68 ) ;
#107 = APPROVAL_STATUS ( 'not_yet_approved' ) ;
#108 = EDGE_LOOP ( 'NONE', ( #211, #31, #208, #231 ) ) ;
#109 = DIRECTION ( 'NONE',  ( 0.000000000000000000, 0.000000000000000000, 1.000000000000000000 ) ) ;
#110 = EDGE_CURVE ( 'NONE', #153, #81, #46, .T. ) ;
#111 = AXIS2_PLACEMENT_3D ( 'NONE', #148, #109, #130 ) ;
#112 = ORIENTED_EDGE ( 'NONE', *, *, #41, .F. ) ;
#113 = APPROVAL ( #107, 'NEURÈENÝ' ) ;
#114 = CARTESIAN_POINT ( 'NONE',  ( 0.000000000000000000, 0.000000000000000000, 0.000000000000000000 ) ) ;
#115 = COORDINATED_UNIVERSAL_TIME_OFFSET ( 1, 0, .AHEAD. ) ;
#116 = LINE ( 'NONE', #242, #127 ) ;
#117 = SHAPE_DEFINITION_REPRESENTATION ( #94, #106 ) ;
#118 = ADVANCED_FACE ( 'NONE', ( #52 ), #174, .T. ) ;
#119 = FACE_OUTER_BOUND ( 'NONE', #108, .T. ) ;
#120 = AXIS2_PLACEMENT_3D ( 'NONE', #134, #216, #1 ) ;
#121 = DIRECTION ( 'NONE',  ( -1.000000000000000000, 0.000000000000000000, 0.000000000000000000 ) ) ;
#122 = DIRECTION ( 'NONE',  ( -1.000000000000000000, 0.000000000000000000, 0.000000000000000000 ) ) ;
#123 = ADVANCED_FACE ( 'NONE', ( #119 ), #177, .T. ) ;
#124 =( NAMED_UNIT ( * ) SI_UNIT ( $, .STERADIAN. ) SOLID_ANGLE_UNIT ( ) );
#125 = APPROVAL_PERSON_ORGANIZATION ( #254, #79, #133 ) ;
#126 = CARTESIAN_POINT ( 'NONE',  ( -9.000000000000000000, 0.000000000000000000, 7.000000000000000000 ) ) ;
#127 = VECTOR ( 'NONE', #163, 1000.000000000000000 ) ;
#128 = ORIENTED_EDGE ( 'NONE', *, *, #47, .F. ) ;
#129 = MECHANICAL_CONTEXT ( 'NONE', #72, 'mechanical' ) ;
#130 = DIRECTION ( 'NONE',  ( 1.000000000000000000, 0.000000000000000000, 0.000000000000000000 ) ) ;
#131 = AXIS2_PLACEMENT_3D ( 'NONE', #149, #234, #48 ) ;
#132 = EDGE_CURVE ( 'NONE', #168, #28, #20, .T. ) ;
#133 = APPROVAL_ROLE ( '' ) ;
#134 = CARTESIAN_POINT ( 'NONE',  ( 0.000000000000000000, 0.000000000000000000, 200.0000000000000000 ) ) ;
#135 = EDGE_CURVE ( 'NONE', #81, #189, #116, .T. ) ;
#136 = AXIS2_PLACEMENT_3D ( 'NONE', #114, #73, #235 ) ;
#137 = LOCAL_TIME ( 11, 41, 22.00000000000000000, #167 ) ;
#138 = DIRECTION ( 'NONE',  ( -1.000000000000000000, 0.000000000000000000, 0.000000000000000000 ) ) ;
#139 = DIRECTION ( 'NONE',  ( 1.000000000000000000, 0.000000000000000000, -0.000000000000000000 ) ) ;
#140 = CARTESIAN_POINT ( 'NONE',  ( -12.00000000000000178, 0.000000000000000000, 7.000000000000000000 ) ) ;
#141 = AXIS2_PLACEMENT_3D ( 'NONE', #35, #195, #121 ) ;
#142 = DIRECTION ( 'NONE',  ( 1.000000000000000000, 0.000000000000000000, 0.000000000000000000 ) ) ;
#143 = CARTESIAN_POINT ( 'NONE',  ( -12.00000000000000178, 0.000000000000000000, 7.000000000000000000 ) ) ;
#144 = CALENDAR_DATE ( 2023, 12, 2 ) ;
#145 = ORIENTED_EDGE ( 'NONE', *, *, #32, .T. ) ;
#146 = COORDINATED_UNIVERSAL_TIME_OFFSET ( 1, 0, .AHEAD. ) ;
#147 = CARTESIAN_POINT ( 'NONE',  ( 9.000000000000000000, 1.102182119232617714E-15, 7.000000000000000000 ) ) ;
#148 = CARTESIAN_POINT ( 'NONE',  ( 0.000000000000000000, 0.000000000000000000, 7.000000000000000000 ) ) ;
#149 = CARTESIAN_POINT ( 'NONE',  ( 0.000000000000000000, 0.000000000000000000, 7.000000000000000000 ) ) ;
#150 = AXIS2_PLACEMENT_3D ( 'NONE', #55, #200, #221 ) ;
#151 = APPROVAL_PERSON_ORGANIZATION ( #29, #205, #40 ) ;
#152 = ADVANCED_FACE ( 'NONE', ( #4 ), #178, .F. ) ;
#153 = VERTEX_POINT ( 'NONE', #58 ) ;
#154 = DESIGN_CONTEXT ( 'detailed design', #176, 'design' ) ;
#155 = ADVANCED_FACE ( 'NONE', ( #3 ), #76, .T. ) ;
#156 = VECTOR ( 'NONE', #77, 1000.000000000000000 ) ;
#157 = LOCAL_TIME ( 11, 41, 22.00000000000000000, #207 ) ;
#158 = APPROVAL_DATE_TIME ( #225, #113 ) ;
#159 = CC_DESIGN_PERSON_AND_ORGANIZATION_ASSIGNMENT ( #192, #173, ( #91 ) ) ;
#160 = DIRECTION ( 'NONE',  ( 1.000000000000000000, 0.000000000000000000, 0.000000000000000000 ) ) ;
#161 = FACE_OUTER_BOUND ( 'NONE', #171, .T. ) ;
#162 = DIRECTION ( 'NONE',  ( -0.000000000000000000, -0.000000000000000000, -1.000000000000000000 ) ) ;
#163 = DIRECTION ( 'NONE',  ( -0.000000000000000000, -0.000000000000000000, -1.000000000000000000 ) ) ;
#164 = CC_DESIGN_APPROVAL ( #79, ( #199 ) ) ;
#165 = COORDINATED_UNIVERSAL_TIME_OFFSET ( 1, 0, .AHEAD. ) ;
#166 = ORIENTED_EDGE ( 'NONE', *, *, #243, .T. ) ;
#167 = COORDINATED_UNIVERSAL_TIME_OFFSET ( 1, 0, .AHEAD. ) ;
#168 = VERTEX_POINT ( 'NONE', #103 ) ;
#169 = CC_DESIGN_APPROVAL ( #113, ( #62 ) ) ;
#170 = DIRECTION ( 'NONE',  ( 1.000000000000000000, 0.000000000000000000, 0.000000000000000000 ) ) ;
#171 = EDGE_LOOP ( 'NONE', ( #13, #65, #69, #226 ) ) ;
#172 = CALENDAR_DATE ( 2023, 12, 2 ) ;
#173 = PERSON_AND_ORGANIZATION_ROLE ( 'design_supplier' ) ;
#174 = PLANE ( 'NONE',  #120 ) ;
#175 = CARTESIAN_POINT ( 'NONE',  ( 0.000000000000000000, 0.000000000000000000, 0.000000000000000000 ) ) ;
#176 = APPLICATION_CONTEXT ( 'configuration controlled 3d designs of mechanical parts and assemblies' ) ;
#177 = CYLINDRICAL_SURFACE ( 'NONE', #141, 9.000000000000000000 ) ;
#178 = PLANE ( 'NONE',  #179 ) ;
#179 = AXIS2_PLACEMENT_3D ( 'NONE', #8, #5, #198 ) ;
#180 = EDGE_CURVE ( 'NONE', #30, #189, #61, .T. ) ;
#181 = DIRECTION ( 'NONE',  ( 0.000000000000000000, 0.000000000000000000, 1.000000000000000000 ) ) ;
#182 = CARTESIAN_POINT ( 'NONE',  ( 9.000000000000000000, 1.102182119232617714E-15, 200.0000000000000000 ) ) ;
#183 = APPROVAL_ROLE ( '' ) ;
#184 = ORIENTED_EDGE ( 'NONE', *, *, #132, .T. ) ;
#185 = DATE_AND_TIME ( #194, #157 ) ;
#186 = CARTESIAN_POINT ( 'NONE',  ( 0.000000000000000000, 0.000000000000000000, 0.000000000000000000 ) ) ;
#187 = CARTESIAN_POINT ( 'NONE',  ( 12.00000000000000178, 1.469576158976824144E-15, 0.000000000000000000 ) ) ;
#188 = CC_DESIGN_DATE_AND_TIME_ASSIGNMENT ( #213, #33, ( #199 ) ) ;
#189 = VERTEX_POINT ( 'NONE', #126 ) ;
#190 = PRODUCT ( 'e39f', 'e39f', '', ( #129 ) ) ;
#191 = CC_DESIGN_SECURITY_CLASSIFICATION ( #62, ( #91 ) ) ;
#192 = PERSON_AND_ORGANIZATION ( #202, #15 ) ;
#193 = DIRECTION ( 'NONE',  ( 1.000000000000000000, 0.000000000000000000, 0.000000000000000000 ) ) ;
#194 = CALENDAR_DATE ( 2023, 12, 2 ) ;
#195 = DIRECTION ( 'NONE',  ( -0.000000000000000000, -0.000000000000000000, -1.000000000000000000 ) ) ;
#196 = LOCAL_TIME ( 11, 41, 22.00000000000000000, #146 ) ;
#197 = EDGE_CURVE ( 'NONE', #153, #30, #38, .T. ) ;
#198 = DIRECTION ( 'NONE',  ( 1.000000000000000000, 0.000000000000000000, -0.000000000000000000 ) ) ;
#199 = PRODUCT_DEFINITION ( 'NEZNÁMÝ', '', #91, #154 ) ;
#200 = DIRECTION ( 'NONE',  ( -0.000000000000000000, -0.000000000000000000, -1.000000000000000000 ) ) ;
#201 = CYLINDRICAL_SURFACE ( 'NONE', #7, 12.00000000000000178 ) ;
#202 = PERSON ( 'NEURÈENÝ', 'NEURÈENÝ', 'NEURÈENÝ', ('NEURÈENÝ'), ('NEURÈENÝ'), ('NEURÈENÝ') ) ;
#203 = DATE_TIME_ROLE ( 'classification_date' ) ;
#204 = ORIENTED_EDGE ( 'NONE', *, *, #110, .F. ) ;
#205 = APPROVAL ( #248, 'NEURÈENÝ' ) ;
#206 = EDGE_LOOP ( 'NONE', ( #253, #184, #88, #67 ) ) ;
#207 = COORDINATED_UNIVERSAL_TIME_OFFSET ( 1, 0, .AHEAD. ) ;
#208 = ORIENTED_EDGE ( 'NONE', *, *, #135, .T. ) ;
#209 = ADVANCED_FACE ( 'NONE', ( #36 ), #201, .T. ) ;
#210 = VECTOR ( 'NONE', #100, 1000.000000000000000 ) ;
#211 = ORIENTED_EDGE ( 'NONE', *, *, #197, .F. ) ;
#212 = ORIENTED_EDGE ( 'NONE', *, *, #180, .T. ) ;
#213 = DATE_AND_TIME ( #172, #252 ) ;
#214 = CIRCLE ( 'NONE', #24, 12.00000000000000178 ) ;
#215 = DATE_AND_TIME ( #14, #137 ) ;
#216 = DIRECTION ( 'NONE',  ( 0.000000000000000000, 0.000000000000000000, 1.000000000000000000 ) ) ;
#217 = ADVANCED_FACE ( 'NONE', ( #21, #23 ), #239, .T. ) ;
#218 = CARTESIAN_POINT ( 'NONE',  ( 0.000000000000000000, 0.000000000000000000, 200.0000000000000000 ) ) ;
#219 =( NAMED_UNIT ( * ) PLANE_ANGLE_UNIT ( ) SI_UNIT ( $, .RADIAN. ) );
#220 = CLOSED_SHELL ( 'NONE', ( #155, #209, #255, #217, #152, #123, #118 ) ) ;
#221 = DIRECTION ( 'NONE',  ( -1.000000000000000000, 0.000000000000000000, 0.000000000000000000 ) ) ;
#222 = EDGE_CURVE ( 'NONE', #250, #10, #74, .T. ) ;
#223 = PERSON_AND_ORGANIZATION_ROLE ( 'creator' ) ;
#224 = UNCERTAINTY_MEASURE_WITH_UNIT (LENGTH_MEASURE( 1.000000000000000082E-05 ), #22, 'distance_accuracy_value', 'NONE');
#225 = DATE_AND_TIME ( #144, #98 ) ;
#226 = ORIENTED_EDGE ( 'NONE', *, *, #47, .T. ) ;
#227 = EDGE_LOOP ( 'NONE', ( #128, #44 ) ) ;
#228 = CC_DESIGN_DATE_AND_TIME_ASSIGNMENT ( #60, #203, ( #62 ) ) ;
#229 = CARTESIAN_POINT ( 'NONE',  ( 0.000000000000000000, 0.000000000000000000, 7.000000000000000000 ) ) ;
#230 = EDGE_LOOP ( 'NONE', ( #145, #27 ) ) ;
#231 = ORIENTED_EDGE ( 'NONE', *, *, #41, .T. ) ;
#232 = DIRECTION ( 'NONE',  ( 1.000000000000000000, 0.000000000000000000, 0.000000000000000000 ) ) ;
#233 = PERSON_AND_ORGANIZATION_ROLE ( 'classification_officer' ) ;
#234 = DIRECTION ( 'NONE',  ( 0.000000000000000000, 0.000000000000000000, 1.000000000000000000 ) ) ;
#235 = DIRECTION ( 'NONE',  ( 1.000000000000000000, 0.000000000000000000, 0.000000000000000000 ) ) ;
#236 = CARTESIAN_POINT ( 'NONE',  ( 0.000000000000000000, 0.000000000000000000, 200.0000000000000000 ) ) ;
#237 = CIRCLE ( 'NONE', #111, 12.00000000000000178 ) ;
#238 = CYLINDRICAL_SURFACE ( 'NONE', #150, 12.00000000000000178 ) ;
#239 = PLANE ( 'NONE',  #102 ) ;
#240 = CARTESIAN_POINT ( 'NONE',  ( 0.000000000000000000, 0.000000000000000000, 7.000000000000000000 ) ) ;
#241 = VECTOR ( 'NONE', #6, 1000.000000000000000 ) ;
#242 = CARTESIAN_POINT ( 'NONE',  ( -9.000000000000000000, 0.000000000000000000, 200.0000000000000000 ) ) ;
#243 = EDGE_CURVE ( 'NONE', #81, #153, #42, .T. ) ;
#244 = PERSON_AND_ORGANIZATION_ROLE ( 'creator' ) ;
#245 = DIRECTION ( 'NONE',  ( 0.000000000000000000, 0.000000000000000000, 1.000000000000000000 ) ) ;
#246 = EDGE_LOOP ( 'NONE', ( #112, #43 ) ) ;
#247 = CIRCLE ( 'NONE', #131, 9.000000000000000000 ) ;
#248 = APPROVAL_STATUS ( 'not_yet_approved' ) ;
#249 = ORIENTED_EDGE ( 'NONE', *, *, #197, .T. ) ;
#250 = VERTEX_POINT ( 'NONE', #140 ) ;
#251 = CIRCLE ( 'NONE', #75, 12.00000000000000178 ) ;
#252 = LOCAL_TIME ( 11, 41, 22.00000000000000000, #115 ) ;
#253 = ORIENTED_EDGE ( 'NONE', *, *, #37, .F. ) ;
#254 = PERSON_AND_ORGANIZATION ( #202, #15 ) ;
#255 = ADVANCED_FACE ( 'NONE', ( #161 ), #238, .T. ) ;
ENDSEC;
END-ISO-10303-21;
