ISO-10303-21;
HEADER;
FILE_DESCRIPTION (( 'STEP AP203' ),
    '1' );
FILE_NAME ('dc4b.STEP',
    '2022-07-07T10:06:03',
    ( '' ),
    ( '' ),
    'SwSTEP 2.0',
    'SolidWorks 2019',
    '' );
FILE_SCHEMA (( 'CONFIG_CONTROL_DESIGN' ));
ENDSEC;

DATA;
#1 = PLANE ( 'NONE',  #204 ) ;
#2 = DIRECTION ( 'NONE',  ( 1.000000000000000000, 0.000000000000000000, 0.000000000000000000 ) ) ;
#3 = DIRECTION ( 'NONE',  ( 0.000000000000000000, 0.000000000000000000, 1.000000000000000000 ) ) ;
#4 = DIRECTION ( 'NONE',  ( -0.000000000000000000, -0.000000000000000000, -1.000000000000000000 ) ) ;
#5 = FACE_OUTER_BOUND ( 'NONE', #36, .T. ) ;
#6 = PERSON_AND_ORGANIZATION ( #301, #152 ) ;
#7 =( LENGTH_UNIT ( ) NAMED_UNIT ( * ) SI_UNIT ( .MILLI., .METRE. ) );
#8 = DIRECTION ( 'NONE',  ( -1.000000000000000000, 1.224646799147350742E-16, 0.000000000000000000 ) ) ;
#9 = APPROVAL_ROLE ( '' ) ;
#10 = CARTESIAN_POINT ( 'NONE',  ( 0.000000000000000000, 0.000000000000000000, 5.000000000000000000 ) ) ;
#11 = CALENDAR_DATE ( 2022, 7, 7 ) ;
#12 = AXIS2_PLACEMENT_3D ( 'NONE', #292, #25, #97 ) ;
#13 = EDGE_CURVE ( 'NONE', #84, #226, #294, .T. ) ;
#14 = EDGE_LOOP ( 'NONE', ( #142, #160 ) ) ;
#15 = EDGE_LOOP ( 'NONE', ( #168, #65 ) ) ;
#16 = EDGE_CURVE ( 'NONE', #112, #132, #136, .T. ) ;
#17 = AXIS2_PLACEMENT_3D ( 'NONE', #271, #126, #289 ) ;
#18 = PRODUCT_DEFINITION_FORMATION_WITH_SPECIFIED_SOURCE ( 'LIBOVOLNÝ', '', #227, .NOT_KNOWN. ) ;
#19 = CARTESIAN_POINT ( 'NONE',  ( -3.500000000000000000, 0.000000000000000000, 1004.999999999999886 ) ) ;
#20 = EDGE_LOOP ( 'NONE', ( #262, #63, #232, #256 ) ) ;
#21 = AXIS2_PLACEMENT_3D ( 'NONE', #203, #236, #181 ) ;
#22 = CC_DESIGN_APPROVAL ( #46, ( #58 ) ) ;
#23 = DIRECTION ( 'NONE',  ( -1.000000000000000000, 0.000000000000000000, 0.000000000000000000 ) ) ;
#24 = DIRECTION ( 'NONE',  ( -0.000000000000000000, -0.000000000000000000, -1.000000000000000000 ) ) ;
#25 = DIRECTION ( 'NONE',  ( 0.000000000000000000, 0.000000000000000000, 1.000000000000000000 ) ) ;
#26 = FACE_OUTER_BOUND ( 'NONE', #14, .T. ) ;
#27 = PERSON_AND_ORGANIZATION ( #301, #152 ) ;
#28 = DIRECTION ( 'NONE',  ( -1.000000000000000000, 0.000000000000000000, 0.000000000000000000 ) ) ;
#29 = DIRECTION ( 'NONE',  ( 0.000000000000000000, 0.000000000000000000, 1.000000000000000000 ) ) ;
#30 = COORDINATED_UNIVERSAL_TIME_OFFSET ( 1, 0, .AHEAD. ) ;
#31 = DIRECTION ( 'NONE',  ( -0.000000000000000000, -0.000000000000000000, -1.000000000000000000 ) ) ;
#32 = MANIFOLD_SOLID_BREP ( 'Zaoblit1', #163 ) ;
#33 = CALENDAR_DATE ( 2022, 7, 7 ) ;
#34 = AXIS2_PLACEMENT_3D ( 'NONE', #161, #87, #8 ) ;
#35 = CIRCLE ( 'NONE', #276, 3.700000000000000178 ) ;
#36 = EDGE_LOOP ( 'NONE', ( #229, #158, #67, #45 ) ) ;
#37 = PRODUCT_DEFINITION_SHAPE ( 'NONE', 'NONE',  #58 ) ;
#38 = CIRCLE ( 'NONE', #274, 3.500000000000000000 ) ;
#39 = CC_DESIGN_PERSON_AND_ORGANIZATION_ASSIGNMENT ( #249, #298, ( #18 ) ) ;
#40 = SECURITY_CLASSIFICATION ( '', '', #243 ) ;
#41 = VERTEX_POINT ( 'NONE', #19 ) ;
#42 = EDGE_CURVE ( 'NONE', #84, #265, #38, .T. ) ;
#43 = ADVANCED_FACE ( 'NONE', ( #68 ), #109, .T. ) ;
#44 = ORIENTED_EDGE ( 'NONE', *, *, #154, .F. ) ;
#45 = ORIENTED_EDGE ( 'NONE', *, *, #219, .T. ) ;
#46 = APPROVAL ( #192, 'NEURÈENÝ' ) ;
#47 = DIRECTION ( 'NONE',  ( -0.000000000000000000, -0.000000000000000000, -1.000000000000000000 ) ) ;
#48 = APPROVAL_PERSON_ORGANIZATION ( #96, #46, #266 ) ;
#49 = CYLINDRICAL_SURFACE ( 'NONE', #178, 3.500000000000000000 ) ;
#50 = CARTESIAN_POINT ( 'NONE',  ( 0.000000000000000000, 0.000000000000000000, 1004.999999999999886 ) ) ;
#51 = ADVANCED_FACE ( 'NONE', ( #304 ), #1, .F. ) ;
#52 = CARTESIAN_POINT ( 'NONE',  ( 0.000000000000000000, 0.000000000000000000, 1004.999999999999886 ) ) ;
#53 = ORIENTED_EDGE ( 'NONE', *, *, #252, .F. ) ;
#54 = PERSON_AND_ORGANIZATION ( #301, #152 ) ;
#55 = DIRECTION ( 'NONE',  ( 1.000000000000000000, 0.000000000000000000, 0.000000000000000000 ) ) ;
#56 = DATE_AND_TIME ( #11, #275 ) ;
#57 = DIRECTION ( 'NONE',  ( 0.000000000000000000, 0.000000000000000000, 1.000000000000000000 ) ) ;
#58 = PRODUCT_DEFINITION ( 'NEZNÁMÝ', '', #18, #224 ) ;
#59 = CARTESIAN_POINT ( 'NONE',  ( -3.500000000000000000, 0.000000000000000000, 1004.999999999999886 ) ) ;
#60 = DATE_TIME_ROLE ( 'classification_date' ) ;
#61 = VECTOR ( 'NONE', #31, 1000.000000000000000 ) ;
#62 = AXIS2_PLACEMENT_3D ( 'NONE', #91, #3, #188 ) ;
#63 = ORIENTED_EDGE ( 'NONE', *, *, #179, .T. ) ;
#64 = AXIS2_PLACEMENT_3D ( 'NONE', #242, #167, #173 ) ;
#65 = ORIENTED_EDGE ( 'NONE', *, *, #141, .T. ) ;
#66 = CIRCLE ( 'NONE', #299, 6.000000000000000888 ) ;
#67 = ORIENTED_EDGE ( 'NONE', *, *, #252, .T. ) ;
#68 = FACE_OUTER_BOUND ( 'NONE', #20, .T. ) ;
#69 = FACE_OUTER_BOUND ( 'NONE', #116, .T. ) ;
#70 = EDGE_CURVE ( 'NONE', #265, #228, #253, .T. ) ;
#71 = VERTEX_POINT ( 'NONE', #245 ) ;
#72 = FACE_OUTER_BOUND ( 'NONE', #208, .T. ) ;
#73 = CARTESIAN_POINT ( 'NONE',  ( 0.000000000000000000, 0.000000000000000000, 0.000000000000000000 ) ) ;
#74 = CYLINDRICAL_SURFACE ( 'NONE', #202, 6.000000000000000888 ) ;
#75 = APPROVAL_DATE_TIME ( #215, #133 ) ;
#76 = DIRECTION ( 'NONE',  ( 1.000000000000000000, 0.000000000000000000, 0.000000000000000000 ) ) ;
#77 = COORDINATED_UNIVERSAL_TIME_OFFSET ( 1, 0, .AHEAD. ) ;
#78 = EDGE_CURVE ( 'NONE', #41, #185, #79, .T. ) ;
#79 = CIRCLE ( 'NONE', #119, 3.500000000000000000 ) ;
#80 = PLANE ( 'NONE',  #108 ) ;
#81 = APPROVAL_DATE_TIME ( #56, #157 ) ;
#82 = PERSON_AND_ORGANIZATION_ROLE ( 'classification_officer' ) ;
#83 = PRODUCT_RELATED_PRODUCT_CATEGORY ( 'detail', '', ( #227 ) ) ;
#84 = VERTEX_POINT ( 'NONE', #284 ) ;
#85 = CIRCLE ( 'NONE', #235, 6.000000000000000888 ) ;
#86 = ORIENTED_EDGE ( 'NONE', *, *, #42, .F. ) ;
#87 = DIRECTION ( 'NONE',  ( 1.224646799147353207E-16, 1.000000000000000000, -0.000000000000000000 ) ) ;
#88 = APPLICATION_PROTOCOL_DEFINITION ( 'international standard', 'config_control_design', 1994, #131 ) ;
#89 = ORIENTED_EDGE ( 'NONE', *, *, #99, .T. ) ;
#90 = CARTESIAN_POINT ( 'NONE',  ( 0.000000000000000000, 0.000000000000000000, 1004.999999999999886 ) ) ;
#91 = CARTESIAN_POINT ( 'NONE',  ( 0.000000000000000000, 0.000000000000000000, 5.199999999999982414 ) ) ;
#92 = APPLICATION_CONTEXT ( 'configuration controlled 3d designs of mechanical parts and assemblies' ) ;
#93 = ORIENTED_EDGE ( 'NONE', *, *, #219, .F. ) ;
#94 = AXIS2_PLACEMENT_3D ( 'NONE', #50, #24, #23 ) ;
#95 = APPROVAL_PERSON_ORGANIZATION ( #6, #157, #145 ) ;
#96 = PERSON_AND_ORGANIZATION ( #301, #152 ) ;
#97 = DIRECTION ( 'NONE',  ( 1.000000000000000000, 0.000000000000000000, 0.000000000000000000 ) ) ;
#98 = DIRECTION ( 'NONE',  ( 1.000000000000000000, 0.000000000000000000, 0.000000000000000000 ) ) ;
#99 = EDGE_CURVE ( 'NONE', #132, #137, #66, .T. ) ;
#100 = CARTESIAN_POINT ( 'NONE',  ( 6.000000000000000888, 7.347880794884120722E-16, 5.000000000000000000 ) ) ;
#101 = DIRECTION ( 'NONE',  ( -0.000000000000000000, -0.000000000000000000, -1.000000000000000000 ) ) ;
#102 = CC_DESIGN_DATE_AND_TIME_ASSIGNMENT ( #218, #60, ( #40 ) ) ;
#103 = AXIS2_PLACEMENT_3D ( 'NONE', #146, #281, #307 ) ;
#104 = DATE_AND_TIME ( #293, #231 ) ;
#105 = CC_DESIGN_SECURITY_CLASSIFICATION ( #40, ( #18 ) ) ;
#106 = ORIENTED_EDGE ( 'NONE', *, *, #70, .T. ) ;
#107 = CC_DESIGN_PERSON_AND_ORGANIZATION_ASSIGNMENT ( #54, #169, ( #227 ) ) ;
#108 = AXIS2_PLACEMENT_3D ( 'NONE', #176, #264, #220 ) ;
#109 = CYLINDRICAL_SURFACE ( 'NONE', #94, 3.500000000000000000 ) ;
#110 = CIRCLE ( 'NONE', #155, 3.500000000000000000 ) ;
#111 = CIRCLE ( 'NONE', #12, 6.000000000000000888 ) ;
#112 = VERTEX_POINT ( 'NONE', #100 ) ;
#113 = ADVANCED_BREP_SHAPE_REPRESENTATION ( 'dc4b', ( #32, #286 ), #156 ) ;
#114 = EDGE_LOOP ( 'NONE', ( #279, #139, #89, #53 ) ) ;
#115 = CARTESIAN_POINT ( 'NONE',  ( 0.000000000000000000, 0.000000000000000000, 5.000000000000000000 ) ) ;
#116 = EDGE_LOOP ( 'NONE', ( #255, #182, #277, #206 ) ) ;
#117 = CARTESIAN_POINT ( 'NONE',  ( -6.000000000000000888, 0.000000000000000000, 5.000000000000000000 ) ) ;
#118 = DIRECTION ( 'NONE',  ( 1.000000000000000000, 0.000000000000000000, 0.000000000000000000 ) ) ;
#119 = AXIS2_PLACEMENT_3D ( 'NONE', #52, #121, #76 ) ;
#120 = DIRECTION ( 'NONE',  ( 0.000000000000000000, 0.000000000000000000, 1.000000000000000000 ) ) ;
#121 = DIRECTION ( 'NONE',  ( 0.000000000000000000, 0.000000000000000000, 1.000000000000000000 ) ) ;
#122 = CALENDAR_DATE ( 2022, 7, 7 ) ;
#123 = CARTESIAN_POINT ( 'NONE',  ( 0.000000000000000000, 0.000000000000000000, 0.000000000000000000 ) ) ;
#124 = CARTESIAN_POINT ( 'NONE',  ( 6.000000000000000888, 7.347880794884120722E-16, 0.000000000000000000 ) ) ;
#125 = CC_DESIGN_DATE_AND_TIME_ASSIGNMENT ( #104, #246, ( #58 ) ) ;
#126 = DIRECTION ( 'NONE',  ( 0.000000000000000000, 0.000000000000000000, 1.000000000000000000 ) ) ;
#127 = COORDINATED_UNIVERSAL_TIME_OFFSET ( 1, 0, .AHEAD. ) ;
#128 = VECTOR ( 'NONE', #183, 1000.000000000000000 ) ;
#129 = EDGE_CURVE ( 'NONE', #185, #41, #110, .T. ) ;
#130 = PERSON_AND_ORGANIZATION_ROLE ( 'design_supplier' ) ;
#131 = APPLICATION_CONTEXT ( 'configuration controlled 3d designs of mechanical parts and assemblies' ) ;
#132 = VERTEX_POINT ( 'NONE', #124 ) ;
#133 = APPROVAL ( #174, 'NEURÈENÝ' ) ;
#134 = ORIENTED_EDGE ( 'NONE', *, *, #99, .F. ) ;
#135 = ADVANCED_FACE ( 'NONE', ( #72 ), #198, .F. ) ;
#136 = LINE ( 'NONE', #287, #230 ) ;
#137 = VERTEX_POINT ( 'NONE', #197 ) ;
#138 = EDGE_LOOP ( 'NONE', ( #93, #134 ) ) ;
#139 = ORIENTED_EDGE ( 'NONE', *, *, #16, .T. ) ;
#140 = DIRECTION ( 'NONE',  ( -0.000000000000000000, -0.000000000000000000, -1.000000000000000000 ) ) ;
#141 = EDGE_CURVE ( 'NONE', #228, #226, #234, .T. ) ;
#142 = ORIENTED_EDGE ( 'NONE', *, *, #290, .T. ) ;
#143 = DIRECTION ( 'NONE',  ( 0.000000000000000000, 0.000000000000000000, 1.000000000000000000 ) ) ;
#144 = FACE_BOUND ( 'NONE', #15, .T. ) ;
#145 = APPROVAL_ROLE ( '' ) ;
#146 = CARTESIAN_POINT ( 'NONE',  ( 0.000000000000000000, 0.000000000000000000, 5.000000000000000000 ) ) ;
#147 = CARTESIAN_POINT ( 'NONE',  ( 0.000000000000000000, 0.000000000000000000, 5.000000000000000000 ) ) ;
#148 = CALENDAR_DATE ( 2022, 7, 7 ) ;
#149 = DIRECTION ( 'NONE',  ( -0.000000000000000000, -0.000000000000000000, -1.000000000000000000 ) ) ;
#150 = COORDINATED_UNIVERSAL_TIME_OFFSET ( 1, 0, .AHEAD. ) ;
#151 = UNCERTAINTY_MEASURE_WITH_UNIT (LENGTH_MEASURE( 1.000000000000000082E-05 ), #7, 'distance_accuracy_value', 'NONE');
#152 = ORGANIZATION ( 'NEURÈENÝ', 'NEURÈENÝ', '' ) ;
#153 = ADVANCED_FACE ( 'NONE', ( #212 ), #80, .T. ) ;
#154 = EDGE_CURVE ( 'NONE', #265, #84, #285, .T. ) ;
#155 = AXIS2_PLACEMENT_3D ( 'NONE', #214, #57, #98 ) ;
#156 =( GEOMETRIC_REPRESENTATION_CONTEXT ( 3 ) GLOBAL_UNCERTAINTY_ASSIGNED_CONTEXT ( ( #151 ) ) GLOBAL_UNIT_ASSIGNED_CONTEXT ( ( #7, #172, #162 ) ) REPRESENTATION_CONTEXT ( 'NONE', 'WORKASPACE' ) );
#157 = APPROVAL ( #273, 'NEURÈENÝ' ) ;
#158 = ORIENTED_EDGE ( 'NONE', *, *, #290, .F. ) ;
#159 = EDGE_CURVE ( 'NONE', #41, #265, #239, .T. ) ;
#160 = ORIENTED_EDGE ( 'NONE', *, *, #210, .T. ) ;
#161 = CARTESIAN_POINT ( 'NONE',  ( -3.700000000000000178, 4.531193156845206201E-16, 5.199999999999982414 ) ) ;
#162 =( NAMED_UNIT ( * ) SI_UNIT ( $, .STERADIAN. ) SOLID_ANGLE_UNIT ( ) );
#163 = CLOSED_SHELL ( 'NONE', ( #190, #43, #303, #180, #225, #51, #278, #153, #135 ) ) ;
#164 = TOROIDAL_SURFACE ( 'NONE', #62, 3.700000000000000178, 0.2000000000000000111 ) ;
#165 = ORIENTED_EDGE ( 'NONE', *, *, #300, .F. ) ;
#166 = DIRECTION ( 'NONE',  ( -1.000000000000000000, 0.000000000000000000, 0.000000000000000000 ) ) ;
#167 = DIRECTION ( 'NONE',  ( 0.000000000000000000, 0.000000000000000000, 1.000000000000000000 ) ) ;
#168 = ORIENTED_EDGE ( 'NONE', *, *, #300, .T. ) ;
#169 = PERSON_AND_ORGANIZATION_ROLE ( 'design_owner' ) ;
#170 = CARTESIAN_POINT ( 'NONE',  ( 0.000000000000000000, 0.000000000000000000, 0.000000000000000000 ) ) ;
#171 = PERSON_AND_ORGANIZATION_ROLE ( 'creator' ) ;
#172 =( NAMED_UNIT ( * ) PLANE_ANGLE_UNIT ( ) SI_UNIT ( $, .RADIAN. ) );
#173 = DIRECTION ( 'NONE',  ( 1.000000000000000000, 0.000000000000000000, 0.000000000000000000 ) ) ;
#174 = APPROVAL_STATUS ( 'not_yet_approved' ) ;
#175 = CC_DESIGN_APPROVAL ( #157, ( #18 ) ) ;
#176 = CARTESIAN_POINT ( 'NONE',  ( 0.000000000000000000, 0.000000000000000000, 1004.999999999999886 ) ) ;
#177 = ORIENTED_EDGE ( 'NONE', *, *, #70, .F. ) ;
#178 = AXIS2_PLACEMENT_3D ( 'NONE', #90, #207, #28 ) ;
#179 = EDGE_CURVE ( 'NONE', #185, #84, #247, .T. ) ;
#180 = ADVANCED_FACE ( 'NONE', ( #5 ), #74, .T. ) ;
#181 = DIRECTION ( 'NONE',  ( 0.000000000000000000, 0.000000000000000000, -1.000000000000000000 ) ) ;
#182 = ORIENTED_EDGE ( 'NONE', *, *, #78, .F. ) ;
#183 = DIRECTION ( 'NONE',  ( -0.000000000000000000, -0.000000000000000000, -1.000000000000000000 ) ) ;
#184 = CC_DESIGN_PERSON_AND_ORGANIZATION_ASSIGNMENT ( #297, #130, ( #18 ) ) ;
#185 = VERTEX_POINT ( 'NONE', #195 ) ;
#186 = CC_DESIGN_APPROVAL ( #133, ( #40 ) ) ;
#187 = CYLINDRICAL_SURFACE ( 'NONE', #251, 6.000000000000000888 ) ;
#188 = DIRECTION ( 'NONE',  ( 1.000000000000000000, 0.000000000000000000, 0.000000000000000000 ) ) ;
#189 = VECTOR ( 'NONE', #149, 1000.000000000000000 ) ;
#190 = ADVANCED_FACE ( 'NONE', ( #296 ), #164, .F. ) ;
#191 = ORIENTED_EDGE ( 'NONE', *, *, #13, .F. ) ;
#192 = APPROVAL_STATUS ( 'not_yet_approved' ) ;
#193 = CARTESIAN_POINT ( 'NONE',  ( 3.500000000000000000, 4.286263797015736595E-16, 1004.999999999999886 ) ) ;
#194 = DIRECTION ( 'NONE',  ( 1.000000000000000000, 0.000000000000000000, 0.000000000000000000 ) ) ;
#195 = CARTESIAN_POINT ( 'NONE',  ( 3.500000000000000000, 4.286263797015736595E-16, 1004.999999999999886 ) ) ;
#196 = PERSON_AND_ORGANIZATION ( #301, #152 ) ;
#197 = CARTESIAN_POINT ( 'NONE',  ( -6.000000000000000888, 0.000000000000000000, 0.000000000000000000 ) ) ;
#198 = TOROIDAL_SURFACE ( 'NONE', #64, 3.700000000000000178, 0.2000000000000000111 ) ;
#199 = LOCAL_TIME ( 12, 6, 3.000000000000000000, #30 ) ;
#200 = DIRECTION ( 'NONE',  ( -1.000000000000000000, 0.000000000000000000, 0.000000000000000000 ) ) ;
#201 = DATE_AND_TIME ( #148, #261 ) ;
#202 = AXIS2_PLACEMENT_3D ( 'NONE', #10, #101, #200 ) ;
#203 = CARTESIAN_POINT ( 'NONE',  ( 3.700000000000000178, 0.000000000000000000, 5.199999999999982414 ) ) ;
#204 = AXIS2_PLACEMENT_3D ( 'NONE', #73, #258, #233 ) ;
#205 = LOCAL_TIME ( 12, 6, 3.000000000000000000, #270 ) ;
#206 = ORIENTED_EDGE ( 'NONE', *, *, #154, .T. ) ;
#207 = DIRECTION ( 'NONE',  ( -0.000000000000000000, -0.000000000000000000, -1.000000000000000000 ) ) ;
#208 = EDGE_LOOP ( 'NONE', ( #177, #86, #282, #237 ) ) ;
#209 = FACE_OUTER_BOUND ( 'NONE', #114, .T. ) ;
#210 = EDGE_CURVE ( 'NONE', #112, #71, #111, .T. ) ;
#211 = EDGE_LOOP ( 'NONE', ( #44, #106, #165, #191 ) ) ;
#212 = FACE_OUTER_BOUND ( 'NONE', #240, .T. ) ;
#213 = DIRECTION ( 'NONE',  ( -0.000000000000000000, -0.000000000000000000, -1.000000000000000000 ) ) ;
#214 = CARTESIAN_POINT ( 'NONE',  ( 0.000000000000000000, 0.000000000000000000, 1004.999999999999886 ) ) ;
#215 = DATE_AND_TIME ( #122, #199 ) ;
#216 = CARTESIAN_POINT ( 'NONE',  ( -3.500000000000000000, 0.000000000000000000, 5.199999999999982414 ) ) ;
#217 = CARTESIAN_POINT ( 'NONE',  ( 0.000000000000000000, 0.000000000000000000, 0.000000000000000000 ) ) ;
#218 = DATE_AND_TIME ( #33, #205 ) ;
#219 = EDGE_CURVE ( 'NONE', #137, #132, #85, .T. ) ;
#220 = DIRECTION ( 'NONE',  ( 1.000000000000000000, 0.000000000000000000, -0.000000000000000000 ) ) ;
#221 = APPROVAL_DATE_TIME ( #201, #46 ) ;
#222 = AXIS2_PLACEMENT_3D ( 'NONE', #115, #143, #288 ) ;
#223 = PERSON_AND_ORGANIZATION ( #301, #152 ) ;
#224 = DESIGN_CONTEXT ( 'detailed design', #131, 'design' ) ;
#225 = ADVANCED_FACE ( 'NONE', ( #144, #26 ), #263, .T. ) ;
#226 = VERTEX_POINT ( 'NONE', #260 ) ;
#227 = PRODUCT ( 'dc4b', 'dc4b', '', ( #238 ) ) ;
#228 = VERTEX_POINT ( 'NONE', #283 ) ;
#229 = ORIENTED_EDGE ( 'NONE', *, *, #16, .F. ) ;
#230 = VECTOR ( 'NONE', #47, 1000.000000000000000 ) ;
#231 = LOCAL_TIME ( 12, 6, 3.000000000000000000, #127 ) ;
#232 = ORIENTED_EDGE ( 'NONE', *, *, #42, .T. ) ;
#233 = DIRECTION ( 'NONE',  ( 1.000000000000000000, 0.000000000000000000, -0.000000000000000000 ) ) ;
#234 = CIRCLE ( 'NONE', #250, 3.700000000000000178 ) ;
#235 = AXIS2_PLACEMENT_3D ( 'NONE', #170, #267, #55 ) ;
#236 = DIRECTION ( 'NONE',  ( 0.000000000000000000, -1.000000000000000000, 0.000000000000000000 ) ) ;
#237 = ORIENTED_EDGE ( 'NONE', *, *, #141, .F. ) ;
#238 = MECHANICAL_CONTEXT ( 'NONE', #92, 'mechanical' ) ;
#239 = LINE ( 'NONE', #59, #189 ) ;
#240 = EDGE_LOOP ( 'NONE', ( #259, #257 ) ) ;
#241 = CARTESIAN_POINT ( 'NONE',  ( 0.000000000000000000, 0.000000000000000000, 5.000000000000000000 ) ) ;
#242 = CARTESIAN_POINT ( 'NONE',  ( 0.000000000000000000, 0.000000000000000000, 5.199999999999982414 ) ) ;
#243 = SECURITY_CLASSIFICATION_LEVEL ( 'unclassified' ) ;
#244 = LINE ( 'NONE', #117, #128 ) ;
#245 = CARTESIAN_POINT ( 'NONE',  ( -6.000000000000000888, 0.000000000000000000, 5.000000000000000000 ) ) ;
#246 = DATE_TIME_ROLE ( 'creation_date' ) ;
#247 = LINE ( 'NONE', #193, #61 ) ;
#248 = CC_DESIGN_PERSON_AND_ORGANIZATION_ASSIGNMENT ( #196, #82, ( #40 ) ) ;
#249 = PERSON_AND_ORGANIZATION ( #301, #152 ) ;
#250 = AXIS2_PLACEMENT_3D ( 'NONE', #147, #140, #118 ) ;
#251 = AXIS2_PLACEMENT_3D ( 'NONE', #291, #213, #166 ) ;
#252 = EDGE_CURVE ( 'NONE', #71, #137, #244, .T. ) ;
#253 = CIRCLE ( 'NONE', #34, 0.2000000000000000944 ) ;
#254 = APPROVAL_PERSON_ORGANIZATION ( #223, #133, #9 ) ;
#255 = ORIENTED_EDGE ( 'NONE', *, *, #179, .F. ) ;
#256 = ORIENTED_EDGE ( 'NONE', *, *, #159, .F. ) ;
#257 = ORIENTED_EDGE ( 'NONE', *, *, #129, .T. ) ;
#258 = DIRECTION ( 'NONE',  ( 0.000000000000000000, 0.000000000000000000, 1.000000000000000000 ) ) ;
#259 = ORIENTED_EDGE ( 'NONE', *, *, #78, .T. ) ;
#260 = CARTESIAN_POINT ( 'NONE',  ( 3.700000000000000178, 0.000000000000000000, 4.999999999999991118 ) ) ;
#261 = LOCAL_TIME ( 12, 6, 3.000000000000000000, #150 ) ;
#262 = ORIENTED_EDGE ( 'NONE', *, *, #129, .F. ) ;
#263 = PLANE ( 'NONE',  #103 ) ;
#264 = DIRECTION ( 'NONE',  ( 0.000000000000000000, 0.000000000000000000, 1.000000000000000000 ) ) ;
#265 = VERTEX_POINT ( 'NONE', #216 ) ;
#266 = APPROVAL_ROLE ( '' ) ;
#267 = DIRECTION ( 'NONE',  ( 0.000000000000000000, 0.000000000000000000, 1.000000000000000000 ) ) ;
#268 = APPLICATION_PROTOCOL_DEFINITION ( 'international standard', 'config_control_design', 1994, #92 ) ;
#269 = DIRECTION ( 'NONE',  ( 1.000000000000000000, 0.000000000000000000, 0.000000000000000000 ) ) ;
#270 = COORDINATED_UNIVERSAL_TIME_OFFSET ( 1, 0, .AHEAD. ) ;
#271 = CARTESIAN_POINT ( 'NONE',  ( 0.000000000000000000, 0.000000000000000000, 5.199999999999982414 ) ) ;
#272 = SHAPE_DEFINITION_REPRESENTATION ( #37, #113 ) ;
#273 = APPROVAL_STATUS ( 'not_yet_approved' ) ;
#274 = AXIS2_PLACEMENT_3D ( 'NONE', #305, #280, #306 ) ;
#275 = LOCAL_TIME ( 12, 6, 3.000000000000000000, #77 ) ;
#276 = AXIS2_PLACEMENT_3D ( 'NONE', #241, #4, #194 ) ;
#277 = ORIENTED_EDGE ( 'NONE', *, *, #159, .T. ) ;
#278 = ADVANCED_FACE ( 'NONE', ( #69 ), #49, .T. ) ;
#279 = ORIENTED_EDGE ( 'NONE', *, *, #210, .F. ) ;
#280 = DIRECTION ( 'NONE',  ( 0.000000000000000000, 0.000000000000000000, 1.000000000000000000 ) ) ;
#281 = DIRECTION ( 'NONE',  ( 0.000000000000000000, 0.000000000000000000, 1.000000000000000000 ) ) ;
#282 = ORIENTED_EDGE ( 'NONE', *, *, #13, .T. ) ;
#283 = CARTESIAN_POINT ( 'NONE',  ( -3.700000000000000178, 4.531193156845206201E-16, 4.999999999999991118 ) ) ;
#284 = CARTESIAN_POINT ( 'NONE',  ( 3.500000000000000000, 4.286263797015736595E-16, 5.199999999999982414 ) ) ;
#285 = CIRCLE ( 'NONE', #17, 3.500000000000000000 ) ;
#286 = AXIS2_PLACEMENT_3D ( 'NONE', #123, #120, #2 ) ;
#287 = CARTESIAN_POINT ( 'NONE',  ( 6.000000000000000888, 7.347880794884120722E-16, 5.000000000000000000 ) ) ;
#288 = DIRECTION ( 'NONE',  ( 1.000000000000000000, 0.000000000000000000, 0.000000000000000000 ) ) ;
#289 = DIRECTION ( 'NONE',  ( 1.000000000000000000, 0.000000000000000000, 0.000000000000000000 ) ) ;
#290 = EDGE_CURVE ( 'NONE', #71, #112, #295, .T. ) ;
#291 = CARTESIAN_POINT ( 'NONE',  ( 0.000000000000000000, 0.000000000000000000, 5.000000000000000000 ) ) ;
#292 = CARTESIAN_POINT ( 'NONE',  ( 0.000000000000000000, 0.000000000000000000, 5.000000000000000000 ) ) ;
#293 = CALENDAR_DATE ( 2022, 7, 7 ) ;
#294 = CIRCLE ( 'NONE', #21, 0.1999999999999996503 ) ;
#295 = CIRCLE ( 'NONE', #222, 6.000000000000000888 ) ;
#296 = FACE_OUTER_BOUND ( 'NONE', #211, .T. ) ;
#297 = PERSON_AND_ORGANIZATION ( #301, #152 ) ;
#298 = PERSON_AND_ORGANIZATION_ROLE ( 'creator' ) ;
#299 = AXIS2_PLACEMENT_3D ( 'NONE', #217, #29, #269 ) ;
#300 = EDGE_CURVE ( 'NONE', #226, #228, #35, .T. ) ;
#301 = PERSON ( 'NEURÈENÝ', 'NEURÈENÝ', 'NEURÈENÝ', ('NEURÈENÝ'), ('NEURÈENÝ'), ('NEURÈENÝ') ) ;
#302 = CC_DESIGN_PERSON_AND_ORGANIZATION_ASSIGNMENT ( #27, #171, ( #58 ) ) ;
#303 = ADVANCED_FACE ( 'NONE', ( #209 ), #187, .T. ) ;
#304 = FACE_OUTER_BOUND ( 'NONE', #138, .T. ) ;
#305 = CARTESIAN_POINT ( 'NONE',  ( 0.000000000000000000, 0.000000000000000000, 5.199999999999982414 ) ) ;
#306 = DIRECTION ( 'NONE',  ( 1.000000000000000000, 0.000000000000000000, 0.000000000000000000 ) ) ;
#307 = DIRECTION ( 'NONE',  ( 1.000000000000000000, 0.000000000000000000, -0.000000000000000000 ) ) ;
ENDSEC;
END-ISO-10303-21;
