ISO-10303-21;
HEADER;
FILE_DESCRIPTION (( 'STEP AP203' ),
    '1' );
FILE_NAME ('936a.STEP',
    '2022-07-07T09:39:57',
    ( '' ),
    ( '' ),
    'SwSTEP 2.0',
    'SolidWorks 2019',
    '' );
FILE_SCHEMA (( 'CONFIG_CONTROL_DESIGN' ));
ENDSEC;

DATA;
#1 = VECTOR ( 'NONE', #294, 1000.000000000000000 ) ;
#2 = FACE_OUTER_BOUND ( 'NONE', #304, .T. ) ;
#3 = ORIENTED_EDGE ( 'NONE', *, *, #272, .F. ) ;
#4 = DIRECTION ( 'NONE',  ( 1.000000000000000000, 0.000000000000000000, 0.000000000000000000 ) ) ;
#5 = DIRECTION ( 'NONE',  ( -0.000000000000000000, -0.000000000000000000, -1.000000000000000000 ) ) ;
#6 = AXIS2_PLACEMENT_3D ( 'NONE', #263, #102, #197 ) ;
#7 = DIRECTION ( 'NONE',  ( 0.000000000000000000, -1.000000000000000000, 0.000000000000000000 ) ) ;
#8 = CARTESIAN_POINT ( 'NONE',  ( 11.00000000000000000, 1.347111479062088405E-15, 0.000000000000000000 ) ) ;
#9 = CARTESIAN_POINT ( 'NONE',  ( -7.000000000000000888, 0.000000000000000000, 7.199999999999984190 ) ) ;
#10 = AXIS2_PLACEMENT_3D ( 'NONE', #55, #203, #158 ) ;
#11 = CARTESIAN_POINT ( 'NONE',  ( -11.00000000000000000, 0.000000000000000000, 0.000000000000000000 ) ) ;
#12 = CARTESIAN_POINT ( 'NONE',  ( 7.200000000000001066, 0.000000000000000000, 7.199999999999984190 ) ) ;
#13 = DATE_TIME_ROLE ( 'classification_date' ) ;
#14 = ORIENTED_EDGE ( 'NONE', *, *, #59, .T. ) ;
#15 = LOCAL_TIME ( 11, 39, 57.00000000000000000, #41 ) ;
#16 = ORIENTED_EDGE ( 'NONE', *, *, #28, .T. ) ;
#17 = CARTESIAN_POINT ( 'NONE',  ( 0.000000000000000000, 0.000000000000000000, 0.000000000000000000 ) ) ;
#18 = ADVANCED_FACE ( 'NONE', ( #2 ), #127, .T. ) ;
#19 = APPROVAL ( #235, 'NEURÈENÝ' ) ;
#20 = COORDINATED_UNIVERSAL_TIME_OFFSET ( 1, 0, .AHEAD. ) ;
#21 = EDGE_LOOP ( 'NONE', ( #14, #212 ) ) ;
#22 = AXIS2_PLACEMENT_3D ( 'NONE', #232, #58, #160 ) ;
#23 = LINE ( 'NONE', #154, #280 ) ;
#24 = VERTEX_POINT ( 'NONE', #173 ) ;
#25 = CC_DESIGN_APPROVAL ( #19, ( #80 ) ) ;
#26 = VERTEX_POINT ( 'NONE', #291 ) ;
#27 = AXIS2_PLACEMENT_3D ( 'NONE', #100, #5, #126 ) ;
#28 = EDGE_CURVE ( 'NONE', #245, #24, #243, .T. ) ;
#29 = CYLINDRICAL_SURFACE ( 'NONE', #6, 7.000000000000000888 ) ;
#30 = PRODUCT_RELATED_PRODUCT_CATEGORY ( 'detail', '', ( #33 ) ) ;
#31 = DIRECTION ( 'NONE',  ( -0.000000000000000000, -0.000000000000000000, -1.000000000000000000 ) ) ;
#32 = DIRECTION ( 'NONE',  ( 1.000000000000000000, 0.000000000000000000, 0.000000000000000000 ) ) ;
#33 = PRODUCT ( '936a', '936a', '', ( #45 ) ) ;
#34 = FACE_OUTER_BOUND ( 'NONE', #74, .T. ) ;
#35 = MANIFOLD_SOLID_BREP ( 'Zaoblit1', #72 ) ;
#36 = CARTESIAN_POINT ( 'NONE',  ( 11.00000000000000000, 1.347111479062088405E-15, 7.000000000000000000 ) ) ;
#37 = LINE ( 'NONE', #36, #1 ) ;
#38 = COORDINATED_UNIVERSAL_TIME_OFFSET ( 1, 0, .AHEAD. ) ;
#39 = ADVANCED_FACE ( 'NONE', ( #195 ), #101, .T. ) ;
#40 = ORIENTED_EDGE ( 'NONE', *, *, #110, .F. ) ;
#41 = COORDINATED_UNIVERSAL_TIME_OFFSET ( 1, 0, .AHEAD. ) ;
#42 = ORIENTED_EDGE ( 'NONE', *, *, #125, .F. ) ;
#43 = CC_DESIGN_DATE_AND_TIME_ASSIGNMENT ( #143, #93, ( #194 ) ) ;
#44 = PERSON_AND_ORGANIZATION ( #200, #56 ) ;
#45 = MECHANICAL_CONTEXT ( 'NONE', #298, 'mechanical' ) ;
#46 = ORIENTED_EDGE ( 'NONE', *, *, #261, .T. ) ;
#47 = CIRCLE ( 'NONE', #192, 7.200000000000001066 ) ;
#48 = PLANE ( 'NONE',  #153 ) ;
#49 = CARTESIAN_POINT ( 'NONE',  ( -7.200000000000001066, 8.817456953860944275E-16, 7.199999999999984190 ) ) ;
#50 = ORIENTED_EDGE ( 'NONE', *, *, #125, .T. ) ;
#51 = CC_DESIGN_APPROVAL ( #98, ( #205 ) ) ;
#52 = ORIENTED_EDGE ( 'NONE', *, *, #223, .T. ) ;
#53 = CIRCLE ( 'NONE', #182, 7.000000000000000888 ) ;
#54 = CARTESIAN_POINT ( 'NONE',  ( -11.00000000000000000, 0.000000000000000000, 7.000000000000000000 ) ) ;
#55 = CARTESIAN_POINT ( 'NONE',  ( 0.000000000000000000, 0.000000000000000000, 7.199999999999984190 ) ) ;
#56 = ORGANIZATION ( 'NEURÈENÝ', 'NEURÈENÝ', '' ) ;
#57 = CARTESIAN_POINT ( 'NONE',  ( 0.000000000000000000, 0.000000000000000000, 0.000000000000000000 ) ) ;
#58 = DIRECTION ( 'NONE',  ( -0.000000000000000000, -0.000000000000000000, -1.000000000000000000 ) ) ;
#59 = EDGE_CURVE ( 'NONE', #94, #287, #106, .T. ) ;
#60 = DIRECTION ( 'NONE',  ( 0.000000000000000000, 0.000000000000000000, 1.000000000000000000 ) ) ;
#61 = DIRECTION ( 'NONE',  ( -0.000000000000000000, -0.000000000000000000, -1.000000000000000000 ) ) ;
#62 = APPLICATION_PROTOCOL_DEFINITION ( 'international standard', 'config_control_design', 1994, #113 ) ;
#63 = ORIENTED_EDGE ( 'NONE', *, *, #302, .T. ) ;
#64 = PERSON_AND_ORGANIZATION ( #200, #56 ) ;
#65 = DIRECTION ( 'NONE',  ( 1.000000000000000000, 0.000000000000000000, 0.000000000000000000 ) ) ;
#66 = CIRCLE ( 'NONE', #69, 11.00000000000000000 ) ;
#67 = ORIENTED_EDGE ( 'NONE', *, *, #210, .F. ) ;
#68 = ADVANCED_BREP_SHAPE_REPRESENTATION ( '936a', ( #35, #299 ), #140 ) ;
#69 = AXIS2_PLACEMENT_3D ( 'NONE', #57, #293, #248 ) ;
#70 = EDGE_CURVE ( 'NONE', #172, #146, #220, .T. ) ;
#71 = CARTESIAN_POINT ( 'NONE',  ( 0.000000000000000000, 0.000000000000000000, 7.199999999999984190 ) ) ;
#72 = CLOSED_SHELL ( 'NONE', ( #81, #88, #144, #18, #281, #284, #39, #119, #196 ) ) ;
#73 = SHAPE_DEFINITION_REPRESENTATION ( #247, #68 ) ;
#74 = EDGE_LOOP ( 'NONE', ( #217, #301, #121, #152 ) ) ;
#75 = CARTESIAN_POINT ( 'NONE',  ( 0.000000000000000000, 0.000000000000000000, 0.000000000000000000 ) ) ;
#76 = APPROVAL_DATE_TIME ( #150, #98 ) ;
#77 = DIRECTION ( 'NONE',  ( -1.000000000000000000, 1.224646799147358384E-16, 0.000000000000000000 ) ) ;
#78 = PLANE ( 'NONE',  #250 ) ;
#79 = FACE_OUTER_BOUND ( 'NONE', #260, .T. ) ;
#80 = PRODUCT_DEFINITION_FORMATION_WITH_SPECIFIED_SOURCE ( 'LIBOVOLNÝ', '', #33, .NOT_KNOWN. ) ;
#81 = ADVANCED_FACE ( 'NONE', ( #244 ), #83, .F. ) ;
#82 = CARTESIAN_POINT ( 'NONE',  ( 0.000000000000000000, 0.000000000000000000, 7.000000000000000000 ) ) ;
#83 = TOROIDAL_SURFACE ( 'NONE', #111, 7.200000000000001066, 0.2000000000000000111 ) ;
#84 = AXIS2_PLACEMENT_3D ( 'NONE', #289, #175, #266 ) ;
#85 = DIRECTION ( 'NONE',  ( -0.000000000000000000, -0.000000000000000000, -1.000000000000000000 ) ) ;
#86 = CC_DESIGN_PERSON_AND_ORGANIZATION_ASSIGNMENT ( #44, #253, ( #194 ) ) ;
#87 = DIRECTION ( 'NONE',  ( 0.000000000000000000, 0.000000000000000000, 1.000000000000000000 ) ) ;
#88 = ADVANCED_FACE ( 'NONE', ( #262 ), #29, .T. ) ;
#89 = DIRECTION ( 'NONE',  ( 0.000000000000000000, 0.000000000000000000, 1.000000000000000000 ) ) ;
#90 = AXIS2_PLACEMENT_3D ( 'NONE', #177, #156, #238 ) ;
#91 = COORDINATED_UNIVERSAL_TIME_OFFSET ( 1, 0, .AHEAD. ) ;
#92 = ORIENTED_EDGE ( 'NONE', *, *, #221, .F. ) ;
#93 = DATE_TIME_ROLE ( 'creation_date' ) ;
#94 = VERTEX_POINT ( 'NONE', #54 ) ;
#95 = APPROVAL_PERSON_ORGANIZATION ( #120, #258, #276 ) ;
#96 = PERSON_AND_ORGANIZATION ( #200, #56 ) ;
#97 = ORIENTED_EDGE ( 'NONE', *, *, #141, .T. ) ;
#98 = APPROVAL ( #115, 'NEURÈENÝ' ) ;
#99 = CARTESIAN_POINT ( 'NONE',  ( 0.000000000000000000, 0.000000000000000000, 637.0000000000000000 ) ) ;
#100 = CARTESIAN_POINT ( 'NONE',  ( 0.000000000000000000, 0.000000000000000000, 7.000000000000000000 ) ) ;
#101 = CYLINDRICAL_SURFACE ( 'NONE', #270, 7.000000000000000888 ) ;
#102 = DIRECTION ( 'NONE',  ( -0.000000000000000000, -0.000000000000000000, -1.000000000000000000 ) ) ;
#103 = TOROIDAL_SURFACE ( 'NONE', #290, 7.200000000000001066, 0.2000000000000000111 ) ;
#104 = UNCERTAINTY_MEASURE_WITH_UNIT (LENGTH_MEASURE( 1.000000000000000082E-05 ), #164, 'distance_accuracy_value', 'NONE');
#105 = EDGE_LOOP ( 'NONE', ( #3, #52, #123, #184 ) ) ;
#106 = CIRCLE ( 'NONE', #84, 11.00000000000000000 ) ;
#107 = CARTESIAN_POINT ( 'NONE',  ( 0.000000000000000000, 0.000000000000000000, 0.000000000000000000 ) ) ;
#108 = CC_DESIGN_SECURITY_CLASSIFICATION ( #205, ( #80 ) ) ;
#109 = DIRECTION ( 'NONE',  ( 1.000000000000000000, 0.000000000000000000, 0.000000000000000000 ) ) ;
#110 = EDGE_CURVE ( 'NONE', #190, #245, #23, .T. ) ;
#111 = AXIS2_PLACEMENT_3D ( 'NONE', #71, #130, #4 ) ;
#112 = CARTESIAN_POINT ( 'NONE',  ( 7.000000000000000888, 8.572527594031474176E-16, 637.0000000000000000 ) ) ;
#113 = APPLICATION_CONTEXT ( 'configuration controlled 3d designs of mechanical parts and assemblies' ) ;
#114 =( NAMED_UNIT ( * ) SI_UNIT ( $, .STERADIAN. ) SOLID_ANGLE_UNIT ( ) );
#115 = APPROVAL_STATUS ( 'not_yet_approved' ) ;
#116 = VECTOR ( 'NONE', #61, 1000.000000000000000 ) ;
#117 = EDGE_LOOP ( 'NONE', ( #219, #42, #236, #151 ) ) ;
#118 = CALENDAR_DATE ( 2022, 7, 7 ) ;
#119 = ADVANCED_FACE ( 'NONE', ( #225 ), #48, .T. ) ;
#120 = PERSON_AND_ORGANIZATION ( #200, #56 ) ;
#121 = ORIENTED_EDGE ( 'NONE', *, *, #206, .T. ) ;
#122 = CALENDAR_DATE ( 2022, 7, 7 ) ;
#123 = ORIENTED_EDGE ( 'NONE', *, *, #70, .T. ) ;
#124 = LOCAL_TIME ( 11, 39, 57.00000000000000000, #38 ) ;
#125 = EDGE_CURVE ( 'NONE', #190, #283, #198, .T. ) ;
#126 = DIRECTION ( 'NONE',  ( -1.000000000000000000, 0.000000000000000000, 0.000000000000000000 ) ) ;
#127 = CYLINDRICAL_SURFACE ( 'NONE', #27, 11.00000000000000000 ) ;
#128 = AXIS2_PLACEMENT_3D ( 'NONE', #12, #7, #251 ) ;
#129 = ORIENTED_EDGE ( 'NONE', *, *, #174, .T. ) ;
#130 = DIRECTION ( 'NONE',  ( 0.000000000000000000, 0.000000000000000000, 1.000000000000000000 ) ) ;
#131 = ORIENTED_EDGE ( 'NONE', *, *, #261, .F. ) ;
#132 = DIRECTION ( 'NONE',  ( 1.000000000000000000, 0.000000000000000000, 0.000000000000000000 ) ) ;
#133 = CARTESIAN_POINT ( 'NONE',  ( 0.000000000000000000, 0.000000000000000000, 7.000000000000000000 ) ) ;
#134 = DIRECTION ( 'NONE',  ( 0.000000000000000000, 0.000000000000000000, 1.000000000000000000 ) ) ;
#135 = DIRECTION ( 'NONE',  ( 1.000000000000000000, 0.000000000000000000, -0.000000000000000000 ) ) ;
#136 = FACE_OUTER_BOUND ( 'NONE', #21, .T. ) ;
#137 = CALENDAR_DATE ( 2022, 7, 7 ) ;
#138 = CC_DESIGN_DATE_AND_TIME_ASSIGNMENT ( #234, #13, ( #205 ) ) ;
#139 = SECURITY_CLASSIFICATION_LEVEL ( 'unclassified' ) ;
#140 =( GEOMETRIC_REPRESENTATION_CONTEXT ( 3 ) GLOBAL_UNCERTAINTY_ASSIGNED_CONTEXT ( ( #104 ) ) GLOBAL_UNIT_ASSIGNED_CONTEXT ( ( #164, #167, #114 ) ) REPRESENTATION_CONTEXT ( 'NONE', 'WORKASPACE' ) );
#141 = EDGE_CURVE ( 'NONE', #283, #190, #53, .T. ) ;
#142 = CALENDAR_DATE ( 2022, 7, 7 ) ;
#143 = DATE_AND_TIME ( #137, #15 ) ;
#144 = ADVANCED_FACE ( 'NONE', ( #229 ), #208, .T. ) ;
#145 = DATE_AND_TIME ( #142, #124 ) ;
#146 = VERTEX_POINT ( 'NONE', #11 ) ;
#147 = CIRCLE ( 'NONE', #10, 7.000000000000000888 ) ;
#148 = AXIS2_PLACEMENT_3D ( 'NONE', #75, #171, #265 ) ;
#149 = CARTESIAN_POINT ( 'NONE',  ( 0.000000000000000000, 0.000000000000000000, 637.0000000000000000 ) ) ;
#150 = DATE_AND_TIME ( #183, #241 ) ;
#151 = ORIENTED_EDGE ( 'NONE', *, *, #210, .T. ) ;
#152 = ORIENTED_EDGE ( 'NONE', *, *, #174, .F. ) ;
#153 = AXIS2_PLACEMENT_3D ( 'NONE', #149, #239, #218 ) ;
#154 = CARTESIAN_POINT ( 'NONE',  ( -7.000000000000000888, 0.000000000000000000, 637.0000000000000000 ) ) ;
#155 = CARTESIAN_POINT ( 'NONE',  ( -11.00000000000000000, 0.000000000000000000, 7.000000000000000000 ) ) ;
#156 = DIRECTION ( 'NONE',  ( 0.000000000000000000, 0.000000000000000000, 1.000000000000000000 ) ) ;
#157 = CARTESIAN_POINT ( 'NONE',  ( 0.000000000000000000, 0.000000000000000000, 637.0000000000000000 ) ) ;
#158 = DIRECTION ( 'NONE',  ( 1.000000000000000000, 0.000000000000000000, 0.000000000000000000 ) ) ;
#159 = CC_DESIGN_PERSON_AND_ORGANIZATION_ASSIGNMENT ( #64, #213, ( #80 ) ) ;
#160 = DIRECTION ( 'NONE',  ( 1.000000000000000000, 0.000000000000000000, 0.000000000000000000 ) ) ;
#161 = CC_DESIGN_PERSON_AND_ORGANIZATION_ASSIGNMENT ( #189, #278, ( #33 ) ) ;
#162 = AXIS2_PLACEMENT_3D ( 'NONE', #49, #285, #77 ) ;
#163 = PERSON_AND_ORGANIZATION_ROLE ( 'classification_officer' ) ;
#164 =( LENGTH_UNIT ( ) NAMED_UNIT ( * ) SI_UNIT ( .MILLI., .METRE. ) );
#165 = LOCAL_TIME ( 11, 39, 57.00000000000000000, #20 ) ;
#166 = EDGE_CURVE ( 'NONE', #283, #277, #246, .T. ) ;
#167 =( NAMED_UNIT ( * ) PLANE_ANGLE_UNIT ( ) SI_UNIT ( $, .RADIAN. ) );
#168 = EDGE_CURVE ( 'NONE', #94, #146, #269, .T. ) ;
#169 = ORIENTED_EDGE ( 'NONE', *, *, #168, .T. ) ;
#170 = CC_DESIGN_APPROVAL ( #258, ( #194 ) ) ;
#171 = DIRECTION ( 'NONE',  ( 0.000000000000000000, 0.000000000000000000, 1.000000000000000000 ) ) ;
#172 = VERTEX_POINT ( 'NONE', #8 ) ;
#173 = CARTESIAN_POINT ( 'NONE',  ( -7.200000000000001066, 8.817456953860944275E-16, 6.999999999999992006 ) ) ;
#174 = EDGE_CURVE ( 'NONE', #24, #26, #178, .T. ) ;
#175 = DIRECTION ( 'NONE',  ( 0.000000000000000000, 0.000000000000000000, 1.000000000000000000 ) ) ;
#176 = CARTESIAN_POINT ( 'NONE',  ( 0.000000000000000000, 0.000000000000000000, 7.000000000000000000 ) ) ;
#177 = CARTESIAN_POINT ( 'NONE',  ( 0.000000000000000000, 0.000000000000000000, 7.199999999999984190 ) ) ;
#178 = CIRCLE ( 'NONE', #22, 7.200000000000001066 ) ;
#179 = DIRECTION ( 'NONE',  ( -1.000000000000000000, 0.000000000000000000, 0.000000000000000000 ) ) ;
#180 = DIRECTION ( 'NONE',  ( 1.000000000000000000, 0.000000000000000000, 0.000000000000000000 ) ) ;
#181 = DIRECTION ( 'NONE',  ( 1.000000000000000000, 0.000000000000000000, -0.000000000000000000 ) ) ;
#182 = AXIS2_PLACEMENT_3D ( 'NONE', #157, #134, #32 ) ;
#183 = CALENDAR_DATE ( 2022, 7, 7 ) ;
#184 = ORIENTED_EDGE ( 'NONE', *, *, #168, .F. ) ;
#185 = AXIS2_PLACEMENT_3D ( 'NONE', #107, #87, #181 ) ;
#186 = APPROVAL_STATUS ( 'not_yet_approved' ) ;
#187 = EDGE_LOOP ( 'NONE', ( #67, #16, #131, #222 ) ) ;
#188 = AXIS2_PLACEMENT_3D ( 'NONE', #99, #202, #109 ) ;
#189 = PERSON_AND_ORGANIZATION ( #200, #56 ) ;
#190 = VERTEX_POINT ( 'NONE', #228 ) ;
#191 = ORIENTED_EDGE ( 'NONE', *, *, #141, .F. ) ;
#192 = AXIS2_PLACEMENT_3D ( 'NONE', #82, #207, #132 ) ;
#193 = CARTESIAN_POINT ( 'NONE',  ( 0.000000000000000000, 0.000000000000000000, 637.0000000000000000 ) ) ;
#194 = PRODUCT_DEFINITION ( 'NEZNÁMÝ', '', #80, #201 ) ;
#195 = FACE_OUTER_BOUND ( 'NONE', #117, .T. ) ;
#196 = ADVANCED_FACE ( 'NONE', ( #34 ), #103, .F. ) ;
#197 = DIRECTION ( 'NONE',  ( -1.000000000000000000, 0.000000000000000000, 0.000000000000000000 ) ) ;
#198 = CIRCLE ( 'NONE', #188, 7.000000000000000888 ) ;
#199 = CARTESIAN_POINT ( 'NONE',  ( 7.000000000000000888, 8.572527594031474176E-16, 7.199999999999984190 ) ) ;
#200 = PERSON ( 'NEURÈENÝ', 'NEURÈENÝ', 'NEURÈENÝ', ('NEURÈENÝ'), ('NEURÈENÝ'), ('NEURÈENÝ') ) ;
#201 = DESIGN_CONTEXT ( 'detailed design', #113, 'design' ) ;
#202 = DIRECTION ( 'NONE',  ( 0.000000000000000000, 0.000000000000000000, 1.000000000000000000 ) ) ;
#203 = DIRECTION ( 'NONE',  ( 0.000000000000000000, 0.000000000000000000, 1.000000000000000000 ) ) ;
#204 = APPROVAL_PERSON_ORGANIZATION ( #303, #98, #211 ) ;
#205 = SECURITY_CLASSIFICATION ( '', '', #139 ) ;
#206 = EDGE_CURVE ( 'NONE', #277, #26, #215, .T. ) ;
#207 = DIRECTION ( 'NONE',  ( -0.000000000000000000, -0.000000000000000000, -1.000000000000000000 ) ) ;
#208 = CYLINDRICAL_SURFACE ( 'NONE', #275, 11.00000000000000000 ) ;
#209 = PERSON_AND_ORGANIZATION ( #200, #56 ) ;
#210 = EDGE_CURVE ( 'NONE', #245, #277, #147, .T. ) ;
#211 = APPROVAL_ROLE ( '' ) ;
#212 = ORIENTED_EDGE ( 'NONE', *, *, #272, .T. ) ;
#213 = PERSON_AND_ORGANIZATION_ROLE ( 'design_supplier' ) ;
#214 = ORIENTED_EDGE ( 'NONE', *, *, #223, .F. ) ;
#215 = CIRCLE ( 'NONE', #128, 0.1999999999999996503 ) ;
#216 = DATE_AND_TIME ( #122, #165 ) ;
#217 = ORIENTED_EDGE ( 'NONE', *, *, #28, .F. ) ;
#218 = DIRECTION ( 'NONE',  ( 1.000000000000000000, 0.000000000000000000, -0.000000000000000000 ) ) ;
#219 = ORIENTED_EDGE ( 'NONE', *, *, #166, .F. ) ;
#220 = CIRCLE ( 'NONE', #148, 11.00000000000000000 ) ;
#221 = EDGE_CURVE ( 'NONE', #146, #172, #66, .T. ) ;
#222 = ORIENTED_EDGE ( 'NONE', *, *, #206, .F. ) ;
#223 = EDGE_CURVE ( 'NONE', #287, #172, #37, .T. ) ;
#224 = DIRECTION ( 'NONE',  ( -1.000000000000000000, 0.000000000000000000, 0.000000000000000000 ) ) ;
#225 = FACE_OUTER_BOUND ( 'NONE', #264, .T. ) ;
#226 = AXIS2_PLACEMENT_3D ( 'NONE', #271, #227, #180 ) ;
#227 = DIRECTION ( 'NONE',  ( 0.000000000000000000, 0.000000000000000000, 1.000000000000000000 ) ) ;
#228 = CARTESIAN_POINT ( 'NONE',  ( -7.000000000000000888, 0.000000000000000000, 637.0000000000000000 ) ) ;
#229 = FACE_OUTER_BOUND ( 'NONE', #105, .T. ) ;
#230 = LOCAL_TIME ( 11, 39, 57.00000000000000000, #233 ) ;
#231 = CARTESIAN_POINT ( 'NONE',  ( 7.000000000000000888, 8.572527594031474176E-16, 637.0000000000000000 ) ) ;
#232 = CARTESIAN_POINT ( 'NONE',  ( 0.000000000000000000, 0.000000000000000000, 7.000000000000000000 ) ) ;
#233 = COORDINATED_UNIVERSAL_TIME_OFFSET ( 1, 0, .AHEAD. ) ;
#234 = DATE_AND_TIME ( #118, #230 ) ;
#235 = APPROVAL_STATUS ( 'not_yet_approved' ) ;
#236 = ORIENTED_EDGE ( 'NONE', *, *, #110, .T. ) ;
#237 = VECTOR ( 'NONE', #85, 1000.000000000000000 ) ;
#238 = DIRECTION ( 'NONE',  ( 1.000000000000000000, 0.000000000000000000, 0.000000000000000000 ) ) ;
#239 = DIRECTION ( 'NONE',  ( 0.000000000000000000, 0.000000000000000000, 1.000000000000000000 ) ) ;
#240 = ORIENTED_EDGE ( 'NONE', *, *, #59, .F. ) ;
#241 = LOCAL_TIME ( 11, 39, 57.00000000000000000, #91 ) ;
#242 = DIRECTION ( 'NONE',  ( -0.000000000000000000, -0.000000000000000000, -1.000000000000000000 ) ) ;
#243 = CIRCLE ( 'NONE', #162, 0.1999999999999996503 ) ;
#244 = FACE_OUTER_BOUND ( 'NONE', #187, .T. ) ;
#245 = VERTEX_POINT ( 'NONE', #9 ) ;
#246 = LINE ( 'NONE', #112, #116 ) ;
#247 = PRODUCT_DEFINITION_SHAPE ( 'NONE', 'NONE',  #194 ) ;
#248 = DIRECTION ( 'NONE',  ( 1.000000000000000000, 0.000000000000000000, 0.000000000000000000 ) ) ;
#249 = DIRECTION ( 'NONE',  ( 0.000000000000000000, 0.000000000000000000, 1.000000000000000000 ) ) ;
#250 = AXIS2_PLACEMENT_3D ( 'NONE', #176, #60, #135 ) ;
#251 = DIRECTION ( 'NONE',  ( 0.000000000000000000, 0.000000000000000000, -1.000000000000000000 ) ) ;
#252 = EDGE_LOOP ( 'NONE', ( #191, #254, #63, #40 ) ) ;
#253 = PERSON_AND_ORGANIZATION_ROLE ( 'creator' ) ;
#254 = ORIENTED_EDGE ( 'NONE', *, *, #166, .T. ) ;
#255 = APPROVAL_PERSON_ORGANIZATION ( #96, #19, #300 ) ;
#256 = APPLICATION_PROTOCOL_DEFINITION ( 'international standard', 'config_control_design', 1994, #298 ) ;
#257 = CC_DESIGN_PERSON_AND_ORGANIZATION_ASSIGNMENT ( #209, #163, ( #205 ) ) ;
#258 = APPROVAL ( #186, 'NEURÈENÝ' ) ;
#259 = PERSON_AND_ORGANIZATION_ROLE ( 'creator' ) ;
#260 = EDGE_LOOP ( 'NONE', ( #92, #307 ) ) ;
#261 = EDGE_CURVE ( 'NONE', #26, #24, #47, .T. ) ;
#262 = FACE_OUTER_BOUND ( 'NONE', #252, .T. ) ;
#263 = CARTESIAN_POINT ( 'NONE',  ( 0.000000000000000000, 0.000000000000000000, 637.0000000000000000 ) ) ;
#264 = EDGE_LOOP ( 'NONE', ( #50, #97 ) ) ;
#265 = DIRECTION ( 'NONE',  ( 1.000000000000000000, 0.000000000000000000, 0.000000000000000000 ) ) ;
#266 = DIRECTION ( 'NONE',  ( 1.000000000000000000, 0.000000000000000000, 0.000000000000000000 ) ) ;
#267 = CARTESIAN_POINT ( 'NONE',  ( 11.00000000000000000, 1.347111479062088405E-15, 7.000000000000000000 ) ) ;
#268 = CC_DESIGN_PERSON_AND_ORGANIZATION_ASSIGNMENT ( #282, #259, ( #80 ) ) ;
#269 = LINE ( 'NONE', #155, #237 ) ;
#270 = AXIS2_PLACEMENT_3D ( 'NONE', #193, #242, #224 ) ;
#271 = CARTESIAN_POINT ( 'NONE',  ( 0.000000000000000000, 0.000000000000000000, 7.000000000000000000 ) ) ;
#272 = EDGE_CURVE ( 'NONE', #287, #94, #286, .T. ) ;
#273 = FACE_BOUND ( 'NONE', #306, .T. ) ;
#274 = DIRECTION ( 'NONE',  ( -0.000000000000000000, -0.000000000000000000, -1.000000000000000000 ) ) ;
#275 = AXIS2_PLACEMENT_3D ( 'NONE', #133, #274, #179 ) ;
#276 = APPROVAL_ROLE ( '' ) ;
#277 = VERTEX_POINT ( 'NONE', #199 ) ;
#278 = PERSON_AND_ORGANIZATION_ROLE ( 'design_owner' ) ;
#279 = APPROVAL_DATE_TIME ( #145, #258 ) ;
#280 = VECTOR ( 'NONE', #31, 1000.000000000000000 ) ;
#281 = ADVANCED_FACE ( 'NONE', ( #273, #136 ), #78, .T. ) ;
#282 = PERSON_AND_ORGANIZATION ( #200, #56 ) ;
#283 = VERTEX_POINT ( 'NONE', #231 ) ;
#284 = ADVANCED_FACE ( 'NONE', ( #79 ), #297, .F. ) ;
#285 = DIRECTION ( 'NONE',  ( 1.224646799147353207E-16, 1.000000000000000000, -0.000000000000000000 ) ) ;
#286 = CIRCLE ( 'NONE', #226, 11.00000000000000000 ) ;
#287 = VERTEX_POINT ( 'NONE', #267 ) ;
#288 = ORIENTED_EDGE ( 'NONE', *, *, #221, .T. ) ;
#289 = CARTESIAN_POINT ( 'NONE',  ( 0.000000000000000000, 0.000000000000000000, 7.000000000000000000 ) ) ;
#290 = AXIS2_PLACEMENT_3D ( 'NONE', #296, #249, #292 ) ;
#291 = CARTESIAN_POINT ( 'NONE',  ( 7.200000000000001066, 0.000000000000000000, 6.999999999999992006 ) ) ;
#292 = DIRECTION ( 'NONE',  ( 1.000000000000000000, 0.000000000000000000, 0.000000000000000000 ) ) ;
#293 = DIRECTION ( 'NONE',  ( 0.000000000000000000, 0.000000000000000000, 1.000000000000000000 ) ) ;
#294 = DIRECTION ( 'NONE',  ( -0.000000000000000000, -0.000000000000000000, -1.000000000000000000 ) ) ;
#295 = CIRCLE ( 'NONE', #90, 7.000000000000000888 ) ;
#296 = CARTESIAN_POINT ( 'NONE',  ( 0.000000000000000000, 0.000000000000000000, 7.199999999999984190 ) ) ;
#297 = PLANE ( 'NONE',  #185 ) ;
#298 = APPLICATION_CONTEXT ( 'configuration controlled 3d designs of mechanical parts and assemblies' ) ;
#299 = AXIS2_PLACEMENT_3D ( 'NONE', #17, #89, #65 ) ;
#300 = APPROVAL_ROLE ( '' ) ;
#301 = ORIENTED_EDGE ( 'NONE', *, *, #302, .F. ) ;
#302 = EDGE_CURVE ( 'NONE', #277, #245, #295, .T. ) ;
#303 = PERSON_AND_ORGANIZATION ( #200, #56 ) ;
#304 = EDGE_LOOP ( 'NONE', ( #214, #240, #169, #288 ) ) ;
#305 = APPROVAL_DATE_TIME ( #216, #19 ) ;
#306 = EDGE_LOOP ( 'NONE', ( #46, #129 ) ) ;
#307 = ORIENTED_EDGE ( 'NONE', *, *, #70, .F. ) ;
ENDSEC;
END-ISO-10303-21;
