ISO-10303-21;
HEADER;
FILE_DESCRIPTION (( 'STEP AP203' ),
    '1' );
FILE_NAME ('7639.STEP',
    '2022-07-07T09:28:46',
    ( '' ),
    ( '' ),
    'SwSTEP 2.0',
    'SolidWorks 2019',
    '' );
FILE_SCHEMA (( 'CONFIG_CONTROL_DESIGN' ));
ENDSEC;

DATA;
#1 = AXIS2_PLACEMENT_3D ( 'NONE', #265, #11, #191 ) ;
#2 = ORIENTED_EDGE ( 'NONE', *, *, #20, .F. ) ;
#3 = DIRECTION ( 'NONE',  ( -0.000000000000000000, -0.000000000000000000, -1.000000000000000000 ) ) ;
#4 = VERTEX_POINT ( 'NONE', #284 ) ;
#5 = CARTESIAN_POINT ( 'NONE',  ( 0.000000000000000000, 0.000000000000000000, 10.00000000000000000 ) ) ;
#6 = CARTESIAN_POINT ( 'NONE',  ( 0.000000000000000000, 0.000000000000000000, 10.19999999999998685 ) ) ;
#7 = DIRECTION ( 'NONE',  ( -1.000000000000000000, 1.224646799147353947E-16, 0.000000000000000000 ) ) ;
#8 = DIRECTION ( 'NONE',  ( -1.000000000000000000, 0.000000000000000000, 0.000000000000000000 ) ) ;
#9 = CC_DESIGN_APPROVAL ( #278, ( #270 ) ) ;
#10 = FACE_BOUND ( 'NONE', #24, .T. ) ;
#11 = DIRECTION ( 'NONE',  ( 0.000000000000000000, -1.000000000000000000, 0.000000000000000000 ) ) ;
#12 = DIRECTION ( 'NONE',  ( 0.000000000000000000, 0.000000000000000000, 1.000000000000000000 ) ) ;
#13 = ORIENTED_EDGE ( 'NONE', *, *, #50, .T. ) ;
#14 = APPROVAL_PERSON_ORGANIZATION ( #203, #216, #181 ) ;
#15 = ORIENTED_EDGE ( 'NONE', *, *, #36, .F. ) ;
#16 = CALENDAR_DATE ( 2022, 7, 7 ) ;
#17 = DATE_TIME_ROLE ( 'creation_date' ) ;
#18 = AXIS2_PLACEMENT_3D ( 'NONE', #218, #294, #8 ) ;
#19 = EDGE_LOOP ( 'NONE', ( #180, #138, #158, #254 ) ) ;
#20 = EDGE_CURVE ( 'NONE', #4, #67, #303, .T. ) ;
#21 = ORIENTED_EDGE ( 'NONE', *, *, #240, .F. ) ;
#22 = ORIENTED_EDGE ( 'NONE', *, *, #47, .T. ) ;
#23 = CIRCLE ( 'NONE', #219, 16.19999999999999929 ) ;
#24 = EDGE_LOOP ( 'NONE', ( #22, #235 ) ) ;
#25 = DIRECTION ( 'NONE',  ( -0.000000000000000000, -0.000000000000000000, -1.000000000000000000 ) ) ;
#26 = CC_DESIGN_DATE_AND_TIME_ASSIGNMENT ( #34, #102, ( #182 ) ) ;
#27 = PLANE ( 'NONE',  #292 ) ;
#28 = CLOSED_SHELL ( 'NONE', ( #172, #304, #221, #237, #151, #57, #245, #30, #290 ) ) ;
#29 = CARTESIAN_POINT ( 'NONE',  ( -16.19999999999999929, 1.983927814618711846E-15, 10.19999999999998685 ) ) ;
#30 = ADVANCED_FACE ( 'NONE', ( #238 ), #27, .T. ) ;
#31 = CYLINDRICAL_SURFACE ( 'NONE', #103, 16.00000000000000000 ) ;
#32 = DIRECTION ( 'NONE',  ( -1.000000000000000000, 0.000000000000000000, 0.000000000000000000 ) ) ;
#33 = CARTESIAN_POINT ( 'NONE',  ( 0.000000000000000000, 0.000000000000000000, 1010.000000000000000 ) ) ;
#34 = DATE_AND_TIME ( #269, #45 ) ;
#35 = LOCAL_TIME ( 11, 28, 46.00000000000000000, #154 ) ;
#36 = EDGE_CURVE ( 'NONE', #91, #66, #44, .T. ) ;
#37 = APPROVAL_ROLE ( '' ) ;
#38 = ORIENTED_EDGE ( 'NONE', *, *, #83, .F. ) ;
#39 = DIRECTION ( 'NONE',  ( 1.000000000000000000, 0.000000000000000000, 0.000000000000000000 ) ) ;
#40 = ORIENTED_EDGE ( 'NONE', *, *, #41, .T. ) ;
#41 = EDGE_CURVE ( 'NONE', #183, #66, #200, .T. ) ;
#42 = DIRECTION ( 'NONE',  ( 1.000000000000000000, 0.000000000000000000, 0.000000000000000000 ) ) ;
#43 = DIRECTION ( 'NONE',  ( -0.000000000000000000, -0.000000000000000000, -1.000000000000000000 ) ) ;
#44 = LINE ( 'NONE', #208, #110 ) ;
#45 = LOCAL_TIME ( 11, 28, 46.00000000000000000, #152 ) ;
#46 = CARTESIAN_POINT ( 'NONE',  ( 0.000000000000000000, 0.000000000000000000, 10.00000000000000000 ) ) ;
#47 = EDGE_CURVE ( 'NONE', #106, #96, #225, .T. ) ;
#48 = DIRECTION ( 'NONE',  ( 0.000000000000000000, 0.000000000000000000, 1.000000000000000000 ) ) ;
#49 = DIRECTION ( 'NONE',  ( -1.000000000000000000, 0.000000000000000000, 0.000000000000000000 ) ) ;
#50 = EDGE_CURVE ( 'NONE', #179, #183, #209, .T. ) ;
#51 = CARTESIAN_POINT ( 'NONE',  ( 0.000000000000000000, 0.000000000000000000, 10.00000000000000000 ) ) ;
#52 = UNCERTAINTY_MEASURE_WITH_UNIT (LENGTH_MEASURE( 1.000000000000000082E-05 ), #276, 'distance_accuracy_value', 'NONE');
#53 = CARTESIAN_POINT ( 'NONE',  ( -20.00000000000000000, 0.000000000000000000, 10.00000000000000000 ) ) ;
#54 = FACE_OUTER_BOUND ( 'NONE', #231, .T. ) ;
#55 = CARTESIAN_POINT ( 'NONE',  ( -20.00000000000000000, 0.000000000000000000, 0.000000000000000000 ) ) ;
#56 = AXIS2_PLACEMENT_3D ( 'NONE', #145, #244, #142 ) ;
#57 = ADVANCED_FACE ( 'NONE', ( #256 ), #190, .F. ) ;
#58 = DATE_AND_TIME ( #64, #160 ) ;
#59 = PERSON_AND_ORGANIZATION_ROLE ( 'classification_officer' ) ;
#60 = ORIENTED_EDGE ( 'NONE', *, *, #193, .T. ) ;
#61 = PERSON_AND_ORGANIZATION ( #297, #299 ) ;
#62 = ORIENTED_EDGE ( 'NONE', *, *, #227, .F. ) ;
#63 = CIRCLE ( 'NONE', #234, 0.1999999999999987899 ) ;
#64 = CALENDAR_DATE ( 2022, 7, 7 ) ;
#65 = DIRECTION ( 'NONE',  ( 0.000000000000000000, 0.000000000000000000, 1.000000000000000000 ) ) ;
#66 = VERTEX_POINT ( 'NONE', #285 ) ;
#67 = VERTEX_POINT ( 'NONE', #210 ) ;
#68 = AXIS2_PLACEMENT_3D ( 'NONE', #124, #173, #32 ) ;
#69 = CARTESIAN_POINT ( 'NONE',  ( 0.000000000000000000, 0.000000000000000000, 1010.000000000000000 ) ) ;
#70 = ORIENTED_EDGE ( 'NONE', *, *, #193, .F. ) ;
#71 = DIRECTION ( 'NONE',  ( 1.000000000000000000, 0.000000000000000000, -0.000000000000000000 ) ) ;
#72 = EDGE_LOOP ( 'NONE', ( #112, #261 ) ) ;
#73 = CARTESIAN_POINT ( 'NONE',  ( -16.00000000000000000, 0.000000000000000000, 10.19999999999998685 ) ) ;
#74 = FACE_OUTER_BOUND ( 'NONE', #104, .T. ) ;
#75 = AXIS2_PLACEMENT_3D ( 'NONE', #46, #279, #42 ) ;
#76 = FACE_OUTER_BOUND ( 'NONE', #253, .T. ) ;
#77 = DESIGN_CONTEXT ( 'detailed design', #295, 'design' ) ;
#78 = CARTESIAN_POINT ( 'NONE',  ( 16.00000000000000000, 1.959434878635765131E-15, 10.19999999999998685 ) ) ;
#79 = DIRECTION ( 'NONE',  ( 1.000000000000000000, 0.000000000000000000, -0.000000000000000000 ) ) ;
#80 = CC_DESIGN_PERSON_AND_ORGANIZATION_ASSIGNMENT ( #249, #128, ( #270 ) ) ;
#81 = DATE_AND_TIME ( #298, #35 ) ;
#82 = CIRCLE ( 'NONE', #56, 16.00000000000000000 ) ;
#83 = EDGE_CURVE ( 'NONE', #4, #239, #89, .T. ) ;
#84 = EDGE_LOOP ( 'NONE', ( #258, #129, #260, #88 ) ) ;
#85 = APPLICATION_CONTEXT ( 'configuration controlled 3d designs of mechanical parts and assemblies' ) ;
#86 = CIRCLE ( 'NONE', #155, 20.00000000000000000 ) ;
#87 = PERSON_AND_ORGANIZATION ( #297, #299 ) ;
#88 = ORIENTED_EDGE ( 'NONE', *, *, #283, .F. ) ;
#89 = LINE ( 'NONE', #287, #195 ) ;
#90 = CIRCLE ( 'NONE', #273, 16.00000000000000000 ) ;
#91 = VERTEX_POINT ( 'NONE', #93 ) ;
#92 = CC_DESIGN_PERSON_AND_ORGANIZATION_ASSIGNMENT ( #177, #59, ( #182 ) ) ;
#93 = CARTESIAN_POINT ( 'NONE',  ( 20.00000000000000000, 2.449293598294706513E-15, 10.00000000000000000 ) ) ;
#94 = CARTESIAN_POINT ( 'NONE',  ( -20.00000000000000000, 0.000000000000000000, 10.00000000000000000 ) ) ;
#95 = AXIS2_PLACEMENT_3D ( 'NONE', #69, #159, #187 ) ;
#96 = VERTEX_POINT ( 'NONE', #188 ) ;
#97 = EDGE_CURVE ( 'NONE', #66, #183, #86, .T. ) ;
#98 = CARTESIAN_POINT ( 'NONE',  ( 0.000000000000000000, 0.000000000000000000, 10.19999999999998685 ) ) ;
#99 = DIRECTION ( 'NONE',  ( -1.000000000000000000, 0.000000000000000000, 0.000000000000000000 ) ) ;
#100 = CIRCLE ( 'NONE', #148, 16.00000000000000000 ) ;
#101 = DIRECTION ( 'NONE',  ( -0.000000000000000000, -0.000000000000000000, -1.000000000000000000 ) ) ;
#102 = DATE_TIME_ROLE ( 'classification_date' ) ;
#103 = AXIS2_PLACEMENT_3D ( 'NONE', #175, #222, #49 ) ;
#104 = EDGE_LOOP ( 'NONE', ( #275, #282, #60, #38 ) ) ;
#105 = APPLICATION_PROTOCOL_DEFINITION ( 'international standard', 'config_control_design', 1994, #85 ) ;
#106 = VERTEX_POINT ( 'NONE', #213 ) ;
#107 = DIRECTION ( 'NONE',  ( 1.000000000000000000, 0.000000000000000000, 0.000000000000000000 ) ) ;
#108 = PERSON_AND_ORGANIZATION_ROLE ( 'creator' ) ;
#109 = ORIENTED_EDGE ( 'NONE', *, *, #307, .T. ) ;
#110 = VECTOR ( 'NONE', #114, 1000.000000000000000 ) ;
#111 = APPROVAL_PERSON_ORGANIZATION ( #126, #136, #201 ) ;
#112 = ORIENTED_EDGE ( 'NONE', *, *, #20, .T. ) ;
#113 = ORIENTED_EDGE ( 'NONE', *, *, #206, .F. ) ;
#114 = DIRECTION ( 'NONE',  ( -0.000000000000000000, -0.000000000000000000, -1.000000000000000000 ) ) ;
#115 = EDGE_LOOP ( 'NONE', ( #162, #230 ) ) ;
#116 = DIRECTION ( 'NONE',  ( 1.000000000000000000, 0.000000000000000000, -0.000000000000000000 ) ) ;
#117 = PRODUCT_DEFINITION_FORMATION_WITH_SPECIFIED_SOURCE ( 'LIBOVOLNÝ', '', #198, .NOT_KNOWN. ) ;
#118 = FACE_OUTER_BOUND ( 'NONE', #131, .T. ) ;
#119 = CARTESIAN_POINT ( 'NONE',  ( 0.000000000000000000, 0.000000000000000000, 10.00000000000000000 ) ) ;
#120 = DIRECTION ( 'NONE',  ( 1.000000000000000000, 0.000000000000000000, 0.000000000000000000 ) ) ;
#121 = ADVANCED_BREP_SHAPE_REPRESENTATION ( '7639', ( #233, #171 ), #176 ) ;
#122 = AXIS2_PLACEMENT_3D ( 'NONE', #306, #48, #257 ) ;
#123 = LINE ( 'NONE', #149, #127 ) ;
#124 = CARTESIAN_POINT ( 'NONE',  ( 0.000000000000000000, 0.000000000000000000, 10.00000000000000000 ) ) ;
#125 = EDGE_CURVE ( 'NONE', #91, #179, #229, .T. ) ;
#126 = PERSON_AND_ORGANIZATION ( #297, #299 ) ;
#127 = VECTOR ( 'NONE', #247, 1000.000000000000000 ) ;
#128 = PERSON_AND_ORGANIZATION_ROLE ( 'creator' ) ;
#129 = ORIENTED_EDGE ( 'NONE', *, *, #206, .T. ) ;
#130 = COORDINATED_UNIVERSAL_TIME_OFFSET ( 1, 0, .AHEAD. ) ;
#131 = EDGE_LOOP ( 'NONE', ( #113, #70, #224, #21 ) ) ;
#132 = CC_DESIGN_PERSON_AND_ORGANIZATION_ASSIGNMENT ( #199, #202, ( #198 ) ) ;
#133 = MECHANICAL_CONTEXT ( 'NONE', #85, 'mechanical' ) ;
#134 = TOROIDAL_SURFACE ( 'NONE', #281, 16.19999999999999929, 0.2000000000000000111 ) ;
#135 = DIRECTION ( 'NONE',  ( 0.000000000000000000, 0.000000000000000000, 1.000000000000000000 ) ) ;
#136 = APPROVAL ( #223, 'NEURÈENÝ' ) ;
#137 = CARTESIAN_POINT ( 'NONE',  ( 0.000000000000000000, 0.000000000000000000, 1010.000000000000000 ) ) ;
#138 = ORIENTED_EDGE ( 'NONE', *, *, #36, .T. ) ;
#139 = AXIS2_PLACEMENT_3D ( 'NONE', #5, #43, #232 ) ;
#140 = ORIENTED_EDGE ( 'NONE', *, *, #227, .T. ) ;
#141 = DIRECTION ( 'NONE',  ( 1.000000000000000000, 0.000000000000000000, 0.000000000000000000 ) ) ;
#142 = DIRECTION ( 'NONE',  ( 1.000000000000000000, 0.000000000000000000, 0.000000000000000000 ) ) ;
#143 = APPROVAL_PERSON_ORGANIZATION ( #61, #278, #37 ) ;
#144 = DIRECTION ( 'NONE',  ( 0.000000000000000000, 0.000000000000000000, 1.000000000000000000 ) ) ;
#145 = CARTESIAN_POINT ( 'NONE',  ( 0.000000000000000000, 0.000000000000000000, 10.19999999999998685 ) ) ;
#146 = EDGE_CURVE ( 'NONE', #67, #4, #90, .T. ) ;
#147 = DIRECTION ( 'NONE',  ( 0.000000000000000000, 0.000000000000000000, 1.000000000000000000 ) ) ;
#148 = AXIS2_PLACEMENT_3D ( 'NONE', #266, #65, #107 ) ;
#149 = CARTESIAN_POINT ( 'NONE',  ( 16.00000000000000000, 1.959434878635765131E-15, 1010.000000000000000 ) ) ;
#150 = PRODUCT_DEFINITION_SHAPE ( 'NONE', 'NONE',  #270 ) ;
#151 = ADVANCED_FACE ( 'NONE', ( #10, #54 ), #263, .T. ) ;
#152 = COORDINATED_UNIVERSAL_TIME_OFFSET ( 1, 0, .AHEAD. ) ;
#153 = COORDINATED_UNIVERSAL_TIME_OFFSET ( 1, 0, .AHEAD. ) ;
#154 = COORDINATED_UNIVERSAL_TIME_OFFSET ( 1, 0, .AHEAD. ) ;
#155 = AXIS2_PLACEMENT_3D ( 'NONE', #185, #167, #141 ) ;
#156 = APPROVAL_DATE_TIME ( #58, #216 ) ;
#157 =( NAMED_UNIT ( * ) PLANE_ANGLE_UNIT ( ) SI_UNIT ( $, .RADIAN. ) );
#158 = ORIENTED_EDGE ( 'NONE', *, *, #97, .T. ) ;
#159 = DIRECTION ( 'NONE',  ( 0.000000000000000000, 0.000000000000000000, 1.000000000000000000 ) ) ;
#160 = LOCAL_TIME ( 11, 28, 46.00000000000000000, #204 ) ;
#161 = APPROVAL_DATE_TIME ( #280, #136 ) ;
#162 = ORIENTED_EDGE ( 'NONE', *, *, #41, .F. ) ;
#163 = DIRECTION ( 'NONE',  ( 0.000000000000000000, 0.000000000000000000, 1.000000000000000000 ) ) ;
#164 = ORIENTED_EDGE ( 'NONE', *, *, #189, .F. ) ;
#165 = AXIS2_PLACEMENT_3D ( 'NONE', #98, #217, #291 ) ;
#166 = CALENDAR_DATE ( 2022, 7, 7 ) ;
#167 = DIRECTION ( 'NONE',  ( 0.000000000000000000, 0.000000000000000000, 1.000000000000000000 ) ) ;
#168 = PRODUCT_RELATED_PRODUCT_CATEGORY ( 'detail', '', ( #198 ) ) ;
#169 = FACE_OUTER_BOUND ( 'NONE', #84, .T. ) ;
#170 = CYLINDRICAL_SURFACE ( 'NONE', #18, 16.00000000000000000 ) ;
#171 = AXIS2_PLACEMENT_3D ( 'NONE', #305, #12, #39 ) ;
#172 = ADVANCED_FACE ( 'NONE', ( #169 ), #286, .F. ) ;
#173 = DIRECTION ( 'NONE',  ( -0.000000000000000000, -0.000000000000000000, -1.000000000000000000 ) ) ;
#174 = FACE_OUTER_BOUND ( 'NONE', #19, .T. ) ;
#175 = CARTESIAN_POINT ( 'NONE',  ( 0.000000000000000000, 0.000000000000000000, 1010.000000000000000 ) ) ;
#176 =( GEOMETRIC_REPRESENTATION_CONTEXT ( 3 ) GLOBAL_UNCERTAINTY_ASSIGNED_CONTEXT ( ( #52 ) ) GLOBAL_UNIT_ASSIGNED_CONTEXT ( ( #276, #157, #178 ) ) REPRESENTATION_CONTEXT ( 'NONE', 'WORKASPACE' ) );
#177 = PERSON_AND_ORGANIZATION ( #297, #299 ) ;
#178 =( NAMED_UNIT ( * ) SI_UNIT ( $, .STERADIAN. ) SOLID_ANGLE_UNIT ( ) );
#179 = VERTEX_POINT ( 'NONE', #53 ) ;
#180 = ORIENTED_EDGE ( 'NONE', *, *, #125, .F. ) ;
#181 = APPROVAL_ROLE ( '' ) ;
#182 = SECURITY_CLASSIFICATION ( '', '', #271 ) ;
#183 = VERTEX_POINT ( 'NONE', #55 ) ;
#184 = CC_DESIGN_APPROVAL ( #216, ( #117 ) ) ;
#185 = CARTESIAN_POINT ( 'NONE',  ( 0.000000000000000000, 0.000000000000000000, 0.000000000000000000 ) ) ;
#186 = CC_DESIGN_APPROVAL ( #136, ( #182 ) ) ;
#187 = DIRECTION ( 'NONE',  ( 1.000000000000000000, 0.000000000000000000, 0.000000000000000000 ) ) ;
#188 = CARTESIAN_POINT ( 'NONE',  ( -16.19999999999999929, 1.983927814618711846E-15, 9.999999999999992895 ) ) ;
#189 = EDGE_CURVE ( 'NONE', #67, #205, #123, .T. ) ;
#190 = PLANE ( 'NONE',  #246 ) ;
#191 = DIRECTION ( 'NONE',  ( 0.000000000000000000, 0.000000000000000000, -1.000000000000000000 ) ) ;
#192 = DIRECTION ( 'NONE',  ( -0.000000000000000000, -0.000000000000000000, -1.000000000000000000 ) ) ;
#193 = EDGE_CURVE ( 'NONE', #205, #239, #82, .T. ) ;
#194 = DIRECTION ( 'NONE',  ( 0.000000000000000000, 0.000000000000000000, 1.000000000000000000 ) ) ;
#195 = VECTOR ( 'NONE', #3, 1000.000000000000000 ) ;
#196 = CARTESIAN_POINT ( 'NONE',  ( 0.000000000000000000, 0.000000000000000000, 10.00000000000000000 ) ) ;
#197 = DIRECTION ( 'NONE',  ( 1.000000000000000000, 0.000000000000000000, 0.000000000000000000 ) ) ;
#198 = PRODUCT ( '7639', '7639', '', ( #133 ) ) ;
#199 = PERSON_AND_ORGANIZATION ( #297, #299 ) ;
#200 = CIRCLE ( 'NONE', #122, 20.00000000000000000 ) ;
#201 = APPROVAL_ROLE ( '' ) ;
#202 = PERSON_AND_ORGANIZATION_ROLE ( 'design_owner' ) ;
#203 = PERSON_AND_ORGANIZATION ( #297, #299 ) ;
#204 = COORDINATED_UNIVERSAL_TIME_OFFSET ( 1, 0, .AHEAD. ) ;
#205 = VERTEX_POINT ( 'NONE', #78 ) ;
#206 = EDGE_CURVE ( 'NONE', #239, #96, #63, .T. ) ;
#207 = SHAPE_DEFINITION_REPRESENTATION ( #150, #121 ) ;
#208 = CARTESIAN_POINT ( 'NONE',  ( 20.00000000000000000, 2.449293598294706513E-15, 10.00000000000000000 ) ) ;
#209 = LINE ( 'NONE', #94, #250 ) ;
#210 = CARTESIAN_POINT ( 'NONE',  ( 16.00000000000000000, 1.959434878635765131E-15, 1010.000000000000000 ) ) ;
#211 = CC_DESIGN_DATE_AND_TIME_ASSIGNMENT ( #228, #17, ( #270 ) ) ;
#212 = CARTESIAN_POINT ( 'NONE',  ( 0.000000000000000000, 0.000000000000000000, 0.000000000000000000 ) ) ;
#213 = CARTESIAN_POINT ( 'NONE',  ( 16.19999999999999929, 0.000000000000000000, 9.999999999999992895 ) ) ;
#214 = LOCAL_TIME ( 11, 28, 46.00000000000000000, #130 ) ;
#215 = CYLINDRICAL_SURFACE ( 'NONE', #68, 20.00000000000000000 ) ;
#216 = APPROVAL ( #302, 'NEURÈENÝ' ) ;
#217 = DIRECTION ( 'NONE',  ( 0.000000000000000000, 0.000000000000000000, 1.000000000000000000 ) ) ;
#218 = CARTESIAN_POINT ( 'NONE',  ( 0.000000000000000000, 0.000000000000000000, 1010.000000000000000 ) ) ;
#219 = AXIS2_PLACEMENT_3D ( 'NONE', #267, #101, #243 ) ;
#220 = DIRECTION ( 'NONE',  ( 0.000000000000000000, 0.000000000000000000, 1.000000000000000000 ) ) ;
#221 = ADVANCED_FACE ( 'NONE', ( #174 ), #241, .T. ) ;
#222 = DIRECTION ( 'NONE',  ( -0.000000000000000000, -0.000000000000000000, -1.000000000000000000 ) ) ;
#223 = APPROVAL_STATUS ( 'not_yet_approved' ) ;
#224 = ORIENTED_EDGE ( 'NONE', *, *, #283, .T. ) ;
#225 = CIRCLE ( 'NONE', #139, 16.19999999999999929 ) ;
#226 = ORIENTED_EDGE ( 'NONE', *, *, #125, .T. ) ;
#227 = EDGE_CURVE ( 'NONE', #179, #91, #264, .T. ) ;
#228 = DATE_AND_TIME ( #16, #214 ) ;
#229 = CIRCLE ( 'NONE', #75, 20.00000000000000000 ) ;
#230 = ORIENTED_EDGE ( 'NONE', *, *, #97, .F. ) ;
#231 = EDGE_LOOP ( 'NONE', ( #140, #226 ) ) ;
#232 = DIRECTION ( 'NONE',  ( 1.000000000000000000, 0.000000000000000000, 0.000000000000000000 ) ) ;
#233 = MANIFOLD_SOLID_BREP ( 'Zaoblit1', #28 ) ;
#234 = AXIS2_PLACEMENT_3D ( 'NONE', #29, #289, #7 ) ;
#235 = ORIENTED_EDGE ( 'NONE', *, *, #240, .T. ) ;
#236 = CC_DESIGN_SECURITY_CLASSIFICATION ( #182, ( #117 ) ) ;
#237 = ADVANCED_FACE ( 'NONE', ( #76 ), #215, .T. ) ;
#238 = FACE_OUTER_BOUND ( 'NONE', #72, .T. ) ;
#239 = VERTEX_POINT ( 'NONE', #73 ) ;
#240 = EDGE_CURVE ( 'NONE', #96, #106, #23, .T. ) ;
#241 = CYLINDRICAL_SURFACE ( 'NONE', #255, 20.00000000000000000 ) ;
#242 = CIRCLE ( 'NONE', #1, 0.2000000000000005107 ) ;
#243 = DIRECTION ( 'NONE',  ( 1.000000000000000000, 0.000000000000000000, 0.000000000000000000 ) ) ;
#244 = DIRECTION ( 'NONE',  ( 0.000000000000000000, 0.000000000000000000, 1.000000000000000000 ) ) ;
#245 = ADVANCED_FACE ( 'NONE', ( #262 ), #31, .T. ) ;
#246 = AXIS2_PLACEMENT_3D ( 'NONE', #212, #135, #71 ) ;
#247 = DIRECTION ( 'NONE',  ( -0.000000000000000000, -0.000000000000000000, -1.000000000000000000 ) ) ;
#248 = CC_DESIGN_PERSON_AND_ORGANIZATION_ASSIGNMENT ( #252, #108, ( #117 ) ) ;
#249 = PERSON_AND_ORGANIZATION ( #297, #299 ) ;
#250 = VECTOR ( 'NONE', #25, 1000.000000000000000 ) ;
#251 = APPROVAL_DATE_TIME ( #81, #278 ) ;
#252 = PERSON_AND_ORGANIZATION ( #297, #299 ) ;
#253 = EDGE_LOOP ( 'NONE', ( #15, #62, #13, #40 ) ) ;
#254 = ORIENTED_EDGE ( 'NONE', *, *, #50, .F. ) ;
#255 = AXIS2_PLACEMENT_3D ( 'NONE', #196, #192, #99 ) ;
#256 = FACE_OUTER_BOUND ( 'NONE', #115, .T. ) ;
#257 = DIRECTION ( 'NONE',  ( 1.000000000000000000, 0.000000000000000000, 0.000000000000000000 ) ) ;
#258 = ORIENTED_EDGE ( 'NONE', *, *, #307, .F. ) ;
#259 = AXIS2_PLACEMENT_3D ( 'NONE', #51, #194, #197 ) ;
#260 = ORIENTED_EDGE ( 'NONE', *, *, #47, .F. ) ;
#261 = ORIENTED_EDGE ( 'NONE', *, *, #146, .T. ) ;
#262 = FACE_OUTER_BOUND ( 'NONE', #301, .T. ) ;
#263 = PLANE ( 'NONE',  #268 ) ;
#264 = CIRCLE ( 'NONE', #259, 20.00000000000000000 ) ;
#265 = CARTESIAN_POINT ( 'NONE',  ( 16.19999999999999929, 0.000000000000000000, 10.19999999999998685 ) ) ;
#266 = CARTESIAN_POINT ( 'NONE',  ( 0.000000000000000000, 0.000000000000000000, 10.19999999999998685 ) ) ;
#267 = CARTESIAN_POINT ( 'NONE',  ( 0.000000000000000000, 0.000000000000000000, 10.00000000000000000 ) ) ;
#268 = AXIS2_PLACEMENT_3D ( 'NONE', #119, #147, #79 ) ;
#269 = CALENDAR_DATE ( 2022, 7, 7 ) ;
#270 = PRODUCT_DEFINITION ( 'NEZNÁMÝ', '', #117, #77 ) ;
#271 = SECURITY_CLASSIFICATION_LEVEL ( 'unclassified' ) ;
#272 = APPLICATION_PROTOCOL_DEFINITION ( 'international standard', 'config_control_design', 1994, #295 ) ;
#273 = AXIS2_PLACEMENT_3D ( 'NONE', #33, #220, #296 ) ;
#274 = APPROVAL_STATUS ( 'not_yet_approved' ) ;
#275 = ORIENTED_EDGE ( 'NONE', *, *, #146, .F. ) ;
#276 =( LENGTH_UNIT ( ) NAMED_UNIT ( * ) SI_UNIT ( .MILLI., .METRE. ) );
#277 = ORIENTED_EDGE ( 'NONE', *, *, #83, .T. ) ;
#278 = APPROVAL ( #274, 'NEURÈENÝ' ) ;
#279 = DIRECTION ( 'NONE',  ( 0.000000000000000000, 0.000000000000000000, 1.000000000000000000 ) ) ;
#280 = DATE_AND_TIME ( #166, #288 ) ;
#281 = AXIS2_PLACEMENT_3D ( 'NONE', #6, #144, #120 ) ;
#282 = ORIENTED_EDGE ( 'NONE', *, *, #189, .T. ) ;
#283 = EDGE_CURVE ( 'NONE', #205, #106, #242, .T. ) ;
#284 = CARTESIAN_POINT ( 'NONE',  ( -16.00000000000000000, 0.000000000000000000, 1010.000000000000000 ) ) ;
#285 = CARTESIAN_POINT ( 'NONE',  ( 20.00000000000000000, 2.449293598294706513E-15, 0.000000000000000000 ) ) ;
#286 = TOROIDAL_SURFACE ( 'NONE', #165, 16.19999999999999929, 0.2000000000000000111 ) ;
#287 = CARTESIAN_POINT ( 'NONE',  ( -16.00000000000000000, 0.000000000000000000, 1010.000000000000000 ) ) ;
#288 = LOCAL_TIME ( 11, 28, 46.00000000000000000, #153 ) ;
#289 = DIRECTION ( 'NONE',  ( 1.224646799147353207E-16, 1.000000000000000000, -0.000000000000000000 ) ) ;
#290 = ADVANCED_FACE ( 'NONE', ( #118 ), #134, .F. ) ;
#291 = DIRECTION ( 'NONE',  ( 1.000000000000000000, 0.000000000000000000, 0.000000000000000000 ) ) ;
#292 = AXIS2_PLACEMENT_3D ( 'NONE', #137, #163, #116 ) ;
#293 = CC_DESIGN_PERSON_AND_ORGANIZATION_ASSIGNMENT ( #87, #300, ( #117 ) ) ;
#294 = DIRECTION ( 'NONE',  ( -0.000000000000000000, -0.000000000000000000, -1.000000000000000000 ) ) ;
#295 = APPLICATION_CONTEXT ( 'configuration controlled 3d designs of mechanical parts and assemblies' ) ;
#296 = DIRECTION ( 'NONE',  ( 1.000000000000000000, 0.000000000000000000, 0.000000000000000000 ) ) ;
#297 = PERSON ( 'NEURÈENÝ', 'NEURÈENÝ', 'NEURÈENÝ', ('NEURÈENÝ'), ('NEURÈENÝ'), ('NEURÈENÝ') ) ;
#298 = CALENDAR_DATE ( 2022, 7, 7 ) ;
#299 = ORGANIZATION ( 'NEURÈENÝ', 'NEURÈENÝ', '' ) ;
#300 = PERSON_AND_ORGANIZATION_ROLE ( 'design_supplier' ) ;
#301 = EDGE_LOOP ( 'NONE', ( #164, #2, #277, #109 ) ) ;
#302 = APPROVAL_STATUS ( 'not_yet_approved' ) ;
#303 = CIRCLE ( 'NONE', #95, 16.00000000000000000 ) ;
#304 = ADVANCED_FACE ( 'NONE', ( #74 ), #170, .T. ) ;
#305 = CARTESIAN_POINT ( 'NONE',  ( 0.000000000000000000, 0.000000000000000000, 0.000000000000000000 ) ) ;
#306 = CARTESIAN_POINT ( 'NONE',  ( 0.000000000000000000, 0.000000000000000000, 0.000000000000000000 ) ) ;
#307 = EDGE_CURVE ( 'NONE', #239, #205, #100, .T. ) ;
ENDSEC;
END-ISO-10303-21;
