ISO-10303-21;
HEADER;
FILE_DESCRIPTION (( 'STEP AP203' ),
    '1' );
FILE_NAME ('dcbb.STEP',
    '2022-07-07T10:12:00',
    ( '' ),
    ( '' ),
    'SwSTEP 2.0',
    'SolidWorks 2019',
    '' );
FILE_SCHEMA (( 'CONFIG_CONTROL_DESIGN' ));
ENDSEC;

DATA;
#1 = CIRCLE ( 'NONE', #129, 6.000000000000000888 ) ;
#2 = CYLINDRICAL_SURFACE ( 'NONE', #299, 3.100000000000000089 ) ;
#3 = ORIENTED_EDGE ( 'NONE', *, *, #35, .F. ) ;
#4 = DIRECTION ( 'NONE',  ( 0.000000000000000000, 0.000000000000000000, 1.000000000000000000 ) ) ;
#5 = DIRECTION ( 'NONE',  ( 0.000000000000000000, 0.000000000000000000, 1.000000000000000000 ) ) ;
#6 = ORIENTED_EDGE ( 'NONE', *, *, #110, .T. ) ;
#7 = ORIENTED_EDGE ( 'NONE', *, *, #219, .T. ) ;
#8 = CYLINDRICAL_SURFACE ( 'NONE', #218, 6.000000000000000888 ) ;
#9 = CARTESIAN_POINT ( 'NONE',  ( 0.000000000000000000, 0.000000000000000000, 5.000000000000000000 ) ) ;
#10 = DIRECTION ( 'NONE',  ( -0.000000000000000000, -0.000000000000000000, -1.000000000000000000 ) ) ;
#11 = DIRECTION ( 'NONE',  ( 1.000000000000000000, 0.000000000000000000, 0.000000000000000000 ) ) ;
#12 = VECTOR ( 'NONE', #19, 1000.000000000000000 ) ;
#13 = ADVANCED_FACE ( 'NONE', ( #207 ), #101, .T. ) ;
#14 = AXIS2_PLACEMENT_3D ( 'NONE', #281, #208, #118 ) ;
#15 = APPROVAL_PERSON_ORGANIZATION ( #38, #139, #200 ) ;
#16 = EDGE_CURVE ( 'NONE', #275, #260, #105, .T. ) ;
#17 = CC_DESIGN_PERSON_AND_ORGANIZATION_ASSIGNMENT ( #111, #271, ( #225 ) ) ;
#18 = FACE_BOUND ( 'NONE', #233, .T. ) ;
#19 = DIRECTION ( 'NONE',  ( -0.000000000000000000, -0.000000000000000000, -1.000000000000000000 ) ) ;
#20 = EDGE_CURVE ( 'NONE', #112, #283, #30, .T. ) ;
#21 = DIRECTION ( 'NONE',  ( 0.000000000000000000, 0.000000000000000000, 1.000000000000000000 ) ) ;
#22 = DIRECTION ( 'NONE',  ( 1.000000000000000000, 0.000000000000000000, -0.000000000000000000 ) ) ;
#23 = PLANE ( 'NONE',  #297 ) ;
#24 = EDGE_LOOP ( 'NONE', ( #96, #120, #301, #76 ) ) ;
#25 = MECHANICAL_CONTEXT ( 'NONE', #239, 'mechanical' ) ;
#26 = CARTESIAN_POINT ( 'NONE',  ( 3.100000000000000089, 3.796405077356794918E-16, 130.0000000000000000 ) ) ;
#27 = ORIENTED_EDGE ( 'NONE', *, *, #267, .T. ) ;
#28 = CARTESIAN_POINT ( 'NONE',  ( 0.000000000000000000, 0.000000000000000000, 0.000000000000000000 ) ) ;
#29 = CIRCLE ( 'NONE', #60, 3.100000000000000089 ) ;
#30 = CIRCLE ( 'NONE', #292, 3.299999999999999822 ) ;
#31 = CIRCLE ( 'NONE', #14, 0.2000000000000000944 ) ;
#32 = AXIS2_PLACEMENT_3D ( 'NONE', #165, #289, #175 ) ;
#33 = AXIS2_PLACEMENT_3D ( 'NONE', #188, #48, #209 ) ;
#34 = AXIS2_PLACEMENT_3D ( 'NONE', #28, #4, #124 ) ;
#35 = EDGE_CURVE ( 'NONE', #183, #260, #230, .T. ) ;
#36 = CIRCLE ( 'NONE', #293, 0.1999999999999996503 ) ;
#37 = CC_DESIGN_PERSON_AND_ORGANIZATION_ASSIGNMENT ( #252, #179, ( #97 ) ) ;
#38 = PERSON_AND_ORGANIZATION ( #231, #253 ) ;
#39 = LOCAL_TIME ( 12, 12, 0.000000000000000000, #180 ) ;
#40 = CALENDAR_DATE ( 2022, 7, 7 ) ;
#41 = CARTESIAN_POINT ( 'NONE',  ( 0.000000000000000000, 0.000000000000000000, 5.199999999999996625 ) ) ;
#42 = ORIENTED_EDGE ( 'NONE', *, *, #20, .T. ) ;
#43 = CARTESIAN_POINT ( 'NONE',  ( -3.100000000000000089, 0.000000000000000000, 130.0000000000000000 ) ) ;
#44 = ADVANCED_FACE ( 'NONE', ( #256 ), #286, .T. ) ;
#45 = DIRECTION ( 'NONE',  ( 1.000000000000000000, 0.000000000000000000, 0.000000000000000000 ) ) ;
#46 = ORIENTED_EDGE ( 'NONE', *, *, #110, .F. ) ;
#47 = DIRECTION ( 'NONE',  ( 0.000000000000000000, 0.000000000000000000, 1.000000000000000000 ) ) ;
#48 = DIRECTION ( 'NONE',  ( 0.000000000000000000, 0.000000000000000000, 1.000000000000000000 ) ) ;
#49 = CC_DESIGN_PERSON_AND_ORGANIZATION_ASSIGNMENT ( #84, #67, ( #225 ) ) ;
#50 = AXIS2_PLACEMENT_3D ( 'NONE', #90, #114, #22 ) ;
#51 = VERTEX_POINT ( 'NONE', #43 ) ;
#52 = DIRECTION ( 'NONE',  ( 1.000000000000000000, 0.000000000000000000, 0.000000000000000000 ) ) ;
#53 = DESIGN_CONTEXT ( 'detailed design', #249, 'design' ) ;
#54 = ORIENTED_EDGE ( 'NONE', *, *, #86, .F. ) ;
#55 =( NAMED_UNIT ( * ) SI_UNIT ( $, .STERADIAN. ) SOLID_ANGLE_UNIT ( ) );
#56 = DIRECTION ( 'NONE',  ( 0.000000000000000000, 0.000000000000000000, 1.000000000000000000 ) ) ;
#57 = APPROVAL ( #135, 'NEURÈENÝ' ) ;
#58 = LOCAL_TIME ( 12, 12, 0.000000000000000000, #133 ) ;
#59 = CALENDAR_DATE ( 2022, 7, 7 ) ;
#60 = AXIS2_PLACEMENT_3D ( 'NONE', #41, #92, #228 ) ;
#61 = COORDINATED_UNIVERSAL_TIME_OFFSET ( 1, 0, .AHEAD. ) ;
#62 = ORIENTED_EDGE ( 'NONE', *, *, #267, .F. ) ;
#63 = ADVANCED_FACE ( 'NONE', ( #307 ), #186, .T. ) ;
#64 = TOROIDAL_SURFACE ( 'NONE', #251, 3.299999999999999822, 0.2000000000000000111 ) ;
#65 = CARTESIAN_POINT ( 'NONE',  ( 0.000000000000000000, 0.000000000000000000, 5.000000000000000000 ) ) ;
#66 = AXIS2_PLACEMENT_3D ( 'NONE', #94, #284, #214 ) ;
#67 = PERSON_AND_ORGANIZATION_ROLE ( 'creator' ) ;
#68 = FACE_OUTER_BOUND ( 'NONE', #229, .T. ) ;
#69 = ORIENTED_EDGE ( 'NONE', *, *, #35, .T. ) ;
#70 = DIRECTION ( 'NONE',  ( 1.000000000000000000, 0.000000000000000000, 0.000000000000000000 ) ) ;
#71 = CARTESIAN_POINT ( 'NONE',  ( 0.000000000000000000, 0.000000000000000000, 5.000000000000000000 ) ) ;
#72 = FACE_OUTER_BOUND ( 'NONE', #167, .T. ) ;
#73 = VERTEX_POINT ( 'NONE', #237 ) ;
#74 = CARTESIAN_POINT ( 'NONE',  ( 6.000000000000000888, 7.347880794884120722E-16, 0.000000000000000000 ) ) ;
#75 = DIRECTION ( 'NONE',  ( -0.000000000000000000, -0.000000000000000000, -1.000000000000000000 ) ) ;
#76 = ORIENTED_EDGE ( 'NONE', *, *, #268, .F. ) ;
#77 = APPLICATION_PROTOCOL_DEFINITION ( 'international standard', 'config_control_design', 1994, #239 ) ;
#78 = CARTESIAN_POINT ( 'NONE',  ( 0.000000000000000000, 0.000000000000000000, 5.199999999999996625 ) ) ;
#79 = CARTESIAN_POINT ( 'NONE',  ( 3.299999999999999822, 0.000000000000000000, 4.999999999999998224 ) ) ;
#80 = LOCAL_TIME ( 12, 12, 0.000000000000000000, #61 ) ;
#81 = DATE_AND_TIME ( #40, #39 ) ;
#82 = CIRCLE ( 'NONE', #261, 3.299999999999999822 ) ;
#83 = DATE_AND_TIME ( #88, #178 ) ;
#84 = PERSON_AND_ORGANIZATION ( #231, #253 ) ;
#85 = APPROVAL_ROLE ( '' ) ;
#86 = EDGE_CURVE ( 'NONE', #73, #275, #173, .T. ) ;
#87 = ORIENTED_EDGE ( 'NONE', *, *, #221, .F. ) ;
#88 = CALENDAR_DATE ( 2022, 7, 7 ) ;
#89 = DIRECTION ( 'NONE',  ( -0.000000000000000000, -0.000000000000000000, -1.000000000000000000 ) ) ;
#90 = CARTESIAN_POINT ( 'NONE',  ( 0.000000000000000000, 0.000000000000000000, 130.0000000000000000 ) ) ;
#91 = CARTESIAN_POINT ( 'NONE',  ( -6.000000000000000888, 0.000000000000000000, 0.000000000000000000 ) ) ;
#92 = DIRECTION ( 'NONE',  ( 0.000000000000000000, 0.000000000000000000, 1.000000000000000000 ) ) ;
#93 = EDGE_LOOP ( 'NONE', ( #170, #238, #258, #3 ) ) ;
#94 = CARTESIAN_POINT ( 'NONE',  ( 0.000000000000000000, 0.000000000000000000, 0.000000000000000000 ) ) ;
#95 = CARTESIAN_POINT ( 'NONE',  ( 3.100000000000000089, 3.796405077356794918E-16, 130.0000000000000000 ) ) ;
#96 = ORIENTED_EDGE ( 'NONE', *, *, #219, .F. ) ;
#97 = PRODUCT_DEFINITION ( 'NEZNÁMÝ', '', #225, #53 ) ;
#98 = CARTESIAN_POINT ( 'NONE',  ( 0.000000000000000000, 0.000000000000000000, 0.000000000000000000 ) ) ;
#99 = LINE ( 'NONE', #217, #248 ) ;
#100 = DIRECTION ( 'NONE',  ( 0.000000000000000000, -1.000000000000000000, 0.000000000000000000 ) ) ;
#101 = CYLINDRICAL_SURFACE ( 'NONE', #234, 6.000000000000000888 ) ;
#102 =( GEOMETRIC_REPRESENTATION_CONTEXT ( 3 ) GLOBAL_UNCERTAINTY_ASSIGNED_CONTEXT ( ( #171 ) ) GLOBAL_UNIT_ASSIGNED_CONTEXT ( ( #266, #236, #55 ) ) REPRESENTATION_CONTEXT ( 'NONE', 'WORKASPACE' ) );
#103 = CARTESIAN_POINT ( 'NONE',  ( -3.100000000000000089, 0.000000000000000000, 5.199999999999996625 ) ) ;
#104 = EDGE_CURVE ( 'NONE', #280, #148, #29, .T. ) ;
#105 = CIRCLE ( 'NONE', #143, 6.000000000000000888 ) ;
#106 = AXIS2_PLACEMENT_3D ( 'NONE', #279, #282, #144 ) ;
#107 = CC_DESIGN_PERSON_AND_ORGANIZATION_ASSIGNMENT ( #272, #303, ( #108 ) ) ;
#108 = SECURITY_CLASSIFICATION ( '', '', #224 ) ;
#109 = APPROVAL_STATUS ( 'not_yet_approved' ) ;
#110 = EDGE_CURVE ( 'NONE', #283, #112, #82, .T. ) ;
#111 = PERSON_AND_ORGANIZATION ( #231, #253 ) ;
#112 = VERTEX_POINT ( 'NONE', #254 ) ;
#113 = PLANE ( 'NONE',  #198 ) ;
#114 = DIRECTION ( 'NONE',  ( 0.000000000000000000, 0.000000000000000000, 1.000000000000000000 ) ) ;
#115 = CARTESIAN_POINT ( 'NONE',  ( 0.000000000000000000, 0.000000000000000000, 130.0000000000000000 ) ) ;
#116 = ORIENTED_EDGE ( 'NONE', *, *, #226, .F. ) ;
#117 = ORIENTED_EDGE ( 'NONE', *, *, #20, .F. ) ;
#118 = DIRECTION ( 'NONE',  ( -1.000000000000000000, 1.224646799147353207E-16, 0.000000000000000000 ) ) ;
#119 = FACE_OUTER_BOUND ( 'NONE', #24, .T. ) ;
#120 = ORIENTED_EDGE ( 'NONE', *, *, #221, .T. ) ;
#121 = DIRECTION ( 'NONE',  ( 0.000000000000000000, 0.000000000000000000, 1.000000000000000000 ) ) ;
#122 = DIRECTION ( 'NONE',  ( -0.000000000000000000, -0.000000000000000000, -1.000000000000000000 ) ) ;
#123 = ORIENTED_EDGE ( 'NONE', *, *, #268, .T. ) ;
#124 = DIRECTION ( 'NONE',  ( 1.000000000000000000, 0.000000000000000000, 0.000000000000000000 ) ) ;
#125 = AXIS2_PLACEMENT_3D ( 'NONE', #163, #142, #235 ) ;
#126 = CC_DESIGN_APPROVAL ( #130, ( #225 ) ) ;
#127 = CC_DESIGN_SECURITY_CLASSIFICATION ( #108, ( #225 ) ) ;
#128 = PRODUCT_RELATED_PRODUCT_CATEGORY ( 'detail', '', ( #153 ) ) ;
#129 = AXIS2_PLACEMENT_3D ( 'NONE', #240, #169, #185 ) ;
#130 = APPROVAL ( #157, 'NEURÈENÝ' ) ;
#131 = ADVANCED_FACE ( 'NONE', ( #68 ), #23, .F. ) ;
#132 = DATE_AND_TIME ( #227, #278 ) ;
#133 = COORDINATED_UNIVERSAL_TIME_OFFSET ( 1, 0, .AHEAD. ) ;
#134 = ADVANCED_FACE ( 'NONE', ( #18, #72 ), #113, .T. ) ;
#135 = APPROVAL_STATUS ( 'not_yet_approved' ) ;
#136 = DIRECTION ( 'NONE',  ( 1.000000000000000000, 0.000000000000000000, -0.000000000000000000 ) ) ;
#137 = EDGE_LOOP ( 'NONE', ( #203, #210, #46, #116 ) ) ;
#138 = CARTESIAN_POINT ( 'NONE',  ( -6.000000000000000888, 0.000000000000000000, 5.000000000000000000 ) ) ;
#139 = APPROVAL ( #109, 'NEURÈENÝ' ) ;
#140 = CARTESIAN_POINT ( 'NONE',  ( -6.000000000000000888, 0.000000000000000000, 5.000000000000000000 ) ) ;
#141 = VERTEX_POINT ( 'NONE', #95 ) ;
#142 = DIRECTION ( 'NONE',  ( -0.000000000000000000, -0.000000000000000000, -1.000000000000000000 ) ) ;
#143 = AXIS2_PLACEMENT_3D ( 'NONE', #98, #47, #70 ) ;
#144 = DIRECTION ( 'NONE',  ( 1.000000000000000000, 0.000000000000000000, 0.000000000000000000 ) ) ;
#145 = ORIENTED_EDGE ( 'NONE', *, *, #195, .T. ) ;
#146 = DIRECTION ( 'NONE',  ( -0.000000000000000000, -0.000000000000000000, -1.000000000000000000 ) ) ;
#147 = LINE ( 'NONE', #26, #176 ) ;
#148 = VERTEX_POINT ( 'NONE', #304 ) ;
#149 = DIRECTION ( 'NONE',  ( -0.000000000000000000, -0.000000000000000000, -1.000000000000000000 ) ) ;
#150 = PERSON_AND_ORGANIZATION ( #231, #253 ) ;
#151 = CARTESIAN_POINT ( 'NONE',  ( 0.000000000000000000, 0.000000000000000000, 0.000000000000000000 ) ) ;
#152 = CC_DESIGN_PERSON_AND_ORGANIZATION_ASSIGNMENT ( #150, #243, ( #153 ) ) ;
#153 = PRODUCT ( 'dcbb', 'dcbb', '', ( #25 ) ) ;
#154 = ADVANCED_FACE ( 'NONE', ( #232 ), #245, .F. ) ;
#155 = DATE_TIME_ROLE ( 'classification_date' ) ;
#156 = VECTOR ( 'NONE', #161, 1000.000000000000000 ) ;
#157 = APPROVAL_STATUS ( 'not_yet_approved' ) ;
#158 = AXIS2_PLACEMENT_3D ( 'NONE', #78, #121, #11 ) ;
#159 = APPROVAL_PERSON_ORGANIZATION ( #202, #57, #201 ) ;
#160 = DIRECTION ( 'NONE',  ( 1.000000000000000000, 0.000000000000000000, 0.000000000000000000 ) ) ;
#161 = DIRECTION ( 'NONE',  ( -0.000000000000000000, -0.000000000000000000, -1.000000000000000000 ) ) ;
#162 = ORIENTED_EDGE ( 'NONE', *, *, #295, .F. ) ;
#163 = CARTESIAN_POINT ( 'NONE',  ( 0.000000000000000000, 0.000000000000000000, 130.0000000000000000 ) ) ;
#164 = ADVANCED_FACE ( 'NONE', ( #212 ), #64, .F. ) ;
#165 = CARTESIAN_POINT ( 'NONE',  ( 0.000000000000000000, 0.000000000000000000, 130.0000000000000000 ) ) ;
#166 = CARTESIAN_POINT ( 'NONE',  ( 0.000000000000000000, 0.000000000000000000, 5.199999999999996625 ) ) ;
#167 = EDGE_LOOP ( 'NONE', ( #211, #145 ) ) ;
#168 = FACE_OUTER_BOUND ( 'NONE', #274, .T. ) ;
#169 = DIRECTION ( 'NONE',  ( 0.000000000000000000, 0.000000000000000000, 1.000000000000000000 ) ) ;
#170 = ORIENTED_EDGE ( 'NONE', *, *, #195, .F. ) ;
#171 = UNCERTAINTY_MEASURE_WITH_UNIT (LENGTH_MEASURE( 1.000000000000000082E-05 ), #266, 'distance_accuracy_value', 'NONE');
#172 = ORIENTED_EDGE ( 'NONE', *, *, #226, .T. ) ;
#173 = LINE ( 'NONE', #190, #156 ) ;
#174 = ADVANCED_FACE ( 'NONE', ( #119 ), #2, .T. ) ;
#175 = DIRECTION ( 'NONE',  ( 1.000000000000000000, 0.000000000000000000, 0.000000000000000000 ) ) ;
#176 = VECTOR ( 'NONE', #122, 1000.000000000000000 ) ;
#177 = PRODUCT_DEFINITION_SHAPE ( 'NONE', 'NONE',  #97 ) ;
#178 = LOCAL_TIME ( 12, 12, 0.000000000000000000, #273 ) ;
#179 = PERSON_AND_ORGANIZATION_ROLE ( 'creator' ) ;
#180 = COORDINATED_UNIVERSAL_TIME_OFFSET ( 1, 0, .AHEAD. ) ;
#181 = AXIS2_PLACEMENT_3D ( 'NONE', #259, #5, #263 ) ;
#182 = APPROVAL_DATE_TIME ( #250, #139 ) ;
#183 = VERTEX_POINT ( 'NONE', #140 ) ;
#184 = APPROVAL_DATE_TIME ( #81, #130 ) ;
#185 = DIRECTION ( 'NONE',  ( 1.000000000000000000, 0.000000000000000000, 0.000000000000000000 ) ) ;
#186 = CYLINDRICAL_SURFACE ( 'NONE', #125, 3.100000000000000089 ) ;
#187 = DIRECTION ( 'NONE',  ( -0.000000000000000000, -0.000000000000000000, -1.000000000000000000 ) ) ;
#188 = CARTESIAN_POINT ( 'NONE',  ( 0.000000000000000000, 0.000000000000000000, 5.199999999999996625 ) ) ;
#189 = ORIENTED_EDGE ( 'NONE', *, *, #16, .F. ) ;
#190 = CARTESIAN_POINT ( 'NONE',  ( 6.000000000000000888, 7.347880794884120722E-16, 5.000000000000000000 ) ) ;
#191 = ORIENTED_EDGE ( 'NONE', *, *, #247, .F. ) ;
#192 = ORIENTED_EDGE ( 'NONE', *, *, #295, .T. ) ;
#193 = DIRECTION ( 'NONE',  ( 1.000000000000000000, 0.000000000000000000, -0.000000000000000000 ) ) ;
#194 = DIRECTION ( 'NONE',  ( -1.000000000000000000, 0.000000000000000000, 0.000000000000000000 ) ) ;
#195 = EDGE_CURVE ( 'NONE', #73, #183, #1, .T. ) ;
#196 = DIRECTION ( 'NONE',  ( -1.000000000000000000, 0.000000000000000000, 0.000000000000000000 ) ) ;
#197 = CC_DESIGN_DATE_AND_TIME_ASSIGNMENT ( #132, #155, ( #108 ) ) ;
#198 = AXIS2_PLACEMENT_3D ( 'NONE', #206, #21, #193 ) ;
#199 = CIRCLE ( 'NONE', #32, 3.100000000000000089 ) ;
#200 = APPROVAL_ROLE ( '' ) ;
#201 = APPROVAL_ROLE ( '' ) ;
#202 = PERSON_AND_ORGANIZATION ( #231, #253 ) ;
#203 = ORIENTED_EDGE ( 'NONE', *, *, #104, .F. ) ;
#204 = DATE_AND_TIME ( #59, #80 ) ;
#205 = EDGE_CURVE ( 'NONE', #183, #73, #276, .T. ) ;
#206 = CARTESIAN_POINT ( 'NONE',  ( 0.000000000000000000, 0.000000000000000000, 5.000000000000000000 ) ) ;
#207 = FACE_OUTER_BOUND ( 'NONE', #93, .T. ) ;
#208 = DIRECTION ( 'NONE',  ( 1.224646799147353207E-16, 1.000000000000000000, -0.000000000000000000 ) ) ;
#209 = DIRECTION ( 'NONE',  ( 1.000000000000000000, 0.000000000000000000, 0.000000000000000000 ) ) ;
#210 = ORIENTED_EDGE ( 'NONE', *, *, #270, .T. ) ;
#211 = ORIENTED_EDGE ( 'NONE', *, *, #205, .T. ) ;
#212 = FACE_OUTER_BOUND ( 'NONE', #213, .T. ) ;
#213 = EDGE_LOOP ( 'NONE', ( #285, #191, #172, #117 ) ) ;
#214 = DIRECTION ( 'NONE',  ( 1.000000000000000000, 0.000000000000000000, 0.000000000000000000 ) ) ;
#215 = CARTESIAN_POINT ( 'NONE',  ( 3.299999999999999822, 0.000000000000000000, 5.199999999999996625 ) ) ;
#216 = ORIENTED_EDGE ( 'NONE', *, *, #205, .F. ) ;
#217 = CARTESIAN_POINT ( 'NONE',  ( -3.100000000000000089, 0.000000000000000000, 130.0000000000000000 ) ) ;
#218 = AXIS2_PLACEMENT_3D ( 'NONE', #71, #146, #196 ) ;
#219 = EDGE_CURVE ( 'NONE', #141, #51, #291, .T. ) ;
#220 = CIRCLE ( 'NONE', #34, 6.000000000000000888 ) ;
#221 = EDGE_CURVE ( 'NONE', #141, #148, #147, .T. ) ;
#222 = COORDINATED_UNIVERSAL_TIME_OFFSET ( 1, 0, .AHEAD. ) ;
#223 = SHAPE_DEFINITION_REPRESENTATION ( #177, #305 ) ;
#224 = SECURITY_CLASSIFICATION_LEVEL ( 'unclassified' ) ;
#225 = PRODUCT_DEFINITION_FORMATION_WITH_SPECIFIED_SOURCE ( 'LIBOVOLNÝ', '', #153, .NOT_KNOWN. ) ;
#226 = EDGE_CURVE ( 'NONE', #148, #283, #36, .T. ) ;
#227 = CALENDAR_DATE ( 2022, 7, 7 ) ;
#228 = DIRECTION ( 'NONE',  ( 1.000000000000000000, 0.000000000000000000, 0.000000000000000000 ) ) ;
#229 = EDGE_LOOP ( 'NONE', ( #62, #189 ) ) ;
#230 = LINE ( 'NONE', #138, #12 ) ;
#231 = PERSON ( 'NEURÈENÝ', 'NEURÈENÝ', 'NEURÈENÝ', ('NEURÈENÝ'), ('NEURÈENÝ'), ('NEURÈENÝ') ) ;
#232 = FACE_OUTER_BOUND ( 'NONE', #137, .T. ) ;
#233 = EDGE_LOOP ( 'NONE', ( #6, #42 ) ) ;
#234 = AXIS2_PLACEMENT_3D ( 'NONE', #264, #10, #194 ) ;
#235 = DIRECTION ( 'NONE',  ( -1.000000000000000000, 0.000000000000000000, 0.000000000000000000 ) ) ;
#236 =( NAMED_UNIT ( * ) PLANE_ANGLE_UNIT ( ) SI_UNIT ( $, .RADIAN. ) );
#237 = CARTESIAN_POINT ( 'NONE',  ( 6.000000000000000888, 7.347880794884120722E-16, 5.000000000000000000 ) ) ;
#238 = ORIENTED_EDGE ( 'NONE', *, *, #86, .T. ) ;
#239 = APPLICATION_CONTEXT ( 'configuration controlled 3d designs of mechanical parts and assemblies' ) ;
#240 = CARTESIAN_POINT ( 'NONE',  ( 0.000000000000000000, 0.000000000000000000, 5.000000000000000000 ) ) ;
#241 = CC_DESIGN_DATE_AND_TIME_ASSIGNMENT ( #83, #296, ( #97 ) ) ;
#242 = ORIENTED_EDGE ( 'NONE', *, *, #104, .T. ) ;
#243 = PERSON_AND_ORGANIZATION_ROLE ( 'design_owner' ) ;
#244 = DIRECTION ( 'NONE',  ( 0.000000000000000000, 0.000000000000000000, 1.000000000000000000 ) ) ;
#245 = TOROIDAL_SURFACE ( 'NONE', #33, 3.299999999999999822, 0.2000000000000000111 ) ;
#246 = CC_DESIGN_APPROVAL ( #57, ( #97 ) ) ;
#247 = EDGE_CURVE ( 'NONE', #148, #280, #288, .T. ) ;
#248 = VECTOR ( 'NONE', #187, 1000.000000000000000 ) ;
#249 = APPLICATION_CONTEXT ( 'configuration controlled 3d designs of mechanical parts and assemblies' ) ;
#250 = DATE_AND_TIME ( #300, #58 ) ;
#251 = AXIS2_PLACEMENT_3D ( 'NONE', #166, #56, #45 ) ;
#252 = PERSON_AND_ORGANIZATION ( #231, #253 ) ;
#253 = ORGANIZATION ( 'NEURÈENÝ', 'NEURÈENÝ', '' ) ;
#254 = CARTESIAN_POINT ( 'NONE',  ( -3.299999999999999822, 4.041334437186265510E-16, 4.999999999999998224 ) ) ;
#255 = MANIFOLD_SOLID_BREP ( 'Zaoblit1', #306 ) ;
#256 = FACE_OUTER_BOUND ( 'NONE', #302, .T. ) ;
#257 = APPROVAL_DATE_TIME ( #204, #57 ) ;
#258 = ORIENTED_EDGE ( 'NONE', *, *, #16, .T. ) ;
#259 = CARTESIAN_POINT ( 'NONE',  ( 0.000000000000000000, 0.000000000000000000, 130.0000000000000000 ) ) ;
#260 = VERTEX_POINT ( 'NONE', #91 ) ;
#261 = AXIS2_PLACEMENT_3D ( 'NONE', #9, #75, #52 ) ;
#262 = EDGE_LOOP ( 'NONE', ( #87, #162, #123, #242 ) ) ;
#263 = DIRECTION ( 'NONE',  ( 1.000000000000000000, 0.000000000000000000, 0.000000000000000000 ) ) ;
#264 = CARTESIAN_POINT ( 'NONE',  ( 0.000000000000000000, 0.000000000000000000, 5.000000000000000000 ) ) ;
#265 = DIRECTION ( 'NONE',  ( -1.000000000000000000, 0.000000000000000000, 0.000000000000000000 ) ) ;
#266 =( LENGTH_UNIT ( ) NAMED_UNIT ( * ) SI_UNIT ( .MILLI., .METRE. ) );
#267 = EDGE_CURVE ( 'NONE', #260, #275, #220, .T. ) ;
#268 = EDGE_CURVE ( 'NONE', #51, #280, #99, .T. ) ;
#269 = APPROVAL_PERSON_ORGANIZATION ( #277, #130, #85 ) ;
#270 = EDGE_CURVE ( 'NONE', #280, #112, #31, .T. ) ;
#271 = PERSON_AND_ORGANIZATION_ROLE ( 'design_supplier' ) ;
#272 = PERSON_AND_ORGANIZATION ( #231, #253 ) ;
#273 = COORDINATED_UNIVERSAL_TIME_OFFSET ( 1, 0, .AHEAD. ) ;
#274 = EDGE_LOOP ( 'NONE', ( #54, #216, #69, #27 ) ) ;
#275 = VERTEX_POINT ( 'NONE', #74 ) ;
#276 = CIRCLE ( 'NONE', #106, 6.000000000000000888 ) ;
#277 = PERSON_AND_ORGANIZATION ( #231, #253 ) ;
#278 = LOCAL_TIME ( 12, 12, 0.000000000000000000, #222 ) ;
#279 = CARTESIAN_POINT ( 'NONE',  ( 0.000000000000000000, 0.000000000000000000, 5.000000000000000000 ) ) ;
#280 = VERTEX_POINT ( 'NONE', #103 ) ;
#281 = CARTESIAN_POINT ( 'NONE',  ( -3.299999999999999822, 4.041334437186265510E-16, 5.199999999999996625 ) ) ;
#282 = DIRECTION ( 'NONE',  ( 0.000000000000000000, 0.000000000000000000, 1.000000000000000000 ) ) ;
#283 = VERTEX_POINT ( 'NONE', #79 ) ;
#284 = DIRECTION ( 'NONE',  ( 0.000000000000000000, 0.000000000000000000, 1.000000000000000000 ) ) ;
#285 = ORIENTED_EDGE ( 'NONE', *, *, #270, .F. ) ;
#286 = PLANE ( 'NONE',  #50 ) ;
#287 = DIRECTION ( 'NONE',  ( 0.000000000000000000, 0.000000000000000000, -1.000000000000000000 ) ) ;
#288 = CIRCLE ( 'NONE', #158, 3.100000000000000089 ) ;
#289 = DIRECTION ( 'NONE',  ( 0.000000000000000000, 0.000000000000000000, 1.000000000000000000 ) ) ;
#290 = ADVANCED_FACE ( 'NONE', ( #168 ), #8, .T. ) ;
#291 = CIRCLE ( 'NONE', #181, 3.100000000000000089 ) ;
#292 = AXIS2_PLACEMENT_3D ( 'NONE', #65, #149, #160 ) ;
#293 = AXIS2_PLACEMENT_3D ( 'NONE', #215, #100, #287 ) ;
#294 = CC_DESIGN_APPROVAL ( #139, ( #108 ) ) ;
#295 = EDGE_CURVE ( 'NONE', #51, #141, #199, .T. ) ;
#296 = DATE_TIME_ROLE ( 'creation_date' ) ;
#297 = AXIS2_PLACEMENT_3D ( 'NONE', #151, #244, #136 ) ;
#298 = APPLICATION_PROTOCOL_DEFINITION ( 'international standard', 'config_control_design', 1994, #249 ) ;
#299 = AXIS2_PLACEMENT_3D ( 'NONE', #115, #89, #265 ) ;
#300 = CALENDAR_DATE ( 2022, 7, 7 ) ;
#301 = ORIENTED_EDGE ( 'NONE', *, *, #247, .T. ) ;
#302 = EDGE_LOOP ( 'NONE', ( #192, #7 ) ) ;
#303 = PERSON_AND_ORGANIZATION_ROLE ( 'classification_officer' ) ;
#304 = CARTESIAN_POINT ( 'NONE',  ( 3.100000000000000089, 3.796405077356794918E-16, 5.199999999999996625 ) ) ;
#305 = ADVANCED_BREP_SHAPE_REPRESENTATION ( 'dcbb', ( #255, #66 ), #102 ) ;
#306 = CLOSED_SHELL ( 'NONE', ( #154, #174, #13, #290, #134, #131, #63, #44, #164 ) ) ;
#307 = FACE_OUTER_BOUND ( 'NONE', #262, .T. ) ;
ENDSEC;
END-ISO-10303-21;
