ISO-10303-21;
HEADER;
FILE_DESCRIPTION (( 'STEP AP203' ),
    '1' );
FILE_NAME ('4d06.STEP',
    '2023-02-12T11:06:48',
    ( '' ),
    ( '' ),
    'SwSTEP 2.0',
    'SolidWorks 2019',
    '' );
FILE_SCHEMA (( 'CONFIG_CONTROL_DESIGN' ));
ENDSEC;

DATA;
#1 = VERTEX_POINT ( 'NONE', #32 ) ;
#2 = APPROVAL_ROLE ( '' ) ;
#3 = ORIENTED_EDGE ( 'NONE', *, *, #235, .T. ) ;
#4 = AXIS2_PLACEMENT_3D ( 'NONE', #215, #139, #80 ) ;
#5 = DATE_AND_TIME ( #144, #50 ) ;
#6 = CC_DESIGN_PERSON_AND_ORGANIZATION_ASSIGNMENT ( #196, #21, ( #115 ) ) ;
#7 = EDGE_LOOP ( 'NONE', ( #33, #109 ) ) ;
#8 = EDGE_CURVE ( 'NONE', #30, #1, #102, .T. ) ;
#9 = APPROVAL_PERSON_ORGANIZATION ( #225, #204, #2 ) ;
#10 = DIRECTION ( 'NONE',  ( -0.000000000000000000, -0.000000000000000000, -1.000000000000000000 ) ) ;
#11 = CARTESIAN_POINT ( 'NONE',  ( -9.000000000000000000, 0.000000000000000000, 7.000000000000000000 ) ) ;
#12 = DIRECTION ( 'NONE',  ( 1.000000000000000000, 0.000000000000000000, 0.000000000000000000 ) ) ;
#13 = APPROVAL ( #44, 'NEURÈENÝ' ) ;
#14 = AXIS2_PLACEMENT_3D ( 'NONE', #229, #52, #125 ) ;
#15 = CYLINDRICAL_SURFACE ( 'NONE', #188, 9.000000000000000000 ) ;
#16 = DIRECTION ( 'NONE',  ( 0.000000000000000000, 0.000000000000000000, 1.000000000000000000 ) ) ;
#17 = DIRECTION ( 'NONE',  ( -0.000000000000000000, -0.000000000000000000, -1.000000000000000000 ) ) ;
#18 = EDGE_CURVE ( 'NONE', #54, #53, #110, .T. ) ;
#19 = CARTESIAN_POINT ( 'NONE',  ( 0.000000000000000000, 0.000000000000000000, 100.0000000000000000 ) ) ;
#20 = DIRECTION ( 'NONE',  ( 1.000000000000000000, 0.000000000000000000, -0.000000000000000000 ) ) ;
#21 = PERSON_AND_ORGANIZATION_ROLE ( 'classification_officer' ) ;
#22 = EDGE_CURVE ( 'NONE', #53, #119, #95, .T. ) ;
#23 = AXIS2_PLACEMENT_3D ( 'NONE', #167, #152, #12 ) ;
#24 = PERSON_AND_ORGANIZATION ( #47, #239 ) ;
#25 = COORDINATED_UNIVERSAL_TIME_OFFSET ( 1, 0, .AHEAD. ) ;
#26 = ORIENTED_EDGE ( 'NONE', *, *, #18, .T. ) ;
#27 = APPROVAL_ROLE ( '' ) ;
#28 = LOCAL_TIME ( 12, 6, 48.00000000000000000, #42 ) ;
#29 = DIRECTION ( 'NONE',  ( -0.000000000000000000, -0.000000000000000000, -1.000000000000000000 ) ) ;
#30 = VERTEX_POINT ( 'NONE', #186 ) ;
#31 = AXIS2_PLACEMENT_3D ( 'NONE', #39, #16, #236 ) ;
#32 = CARTESIAN_POINT ( 'NONE',  ( -6.000000000000000888, 0.000000000000000000, 100.0000000000000000 ) ) ;
#33 = ORIENTED_EDGE ( 'NONE', *, *, #22, .F. ) ;
#34 = DIRECTION ( 'NONE',  ( -0.000000000000000000, -0.000000000000000000, -1.000000000000000000 ) ) ;
#35 = CLOSED_SHELL ( 'NONE', ( #162, #107, #151, #60, #213, #192, #127 ) ) ;
#36 = FACE_OUTER_BOUND ( 'NONE', #219, .T. ) ;
#37 = CARTESIAN_POINT ( 'NONE',  ( 0.000000000000000000, 0.000000000000000000, 100.0000000000000000 ) ) ;
#38 = DIRECTION ( 'NONE',  ( -0.000000000000000000, -0.000000000000000000, -1.000000000000000000 ) ) ;
#39 = CARTESIAN_POINT ( 'NONE',  ( 0.000000000000000000, 0.000000000000000000, 7.000000000000000000 ) ) ;
#40 = EDGE_CURVE ( 'NONE', #30, #122, #92, .T. ) ;
#41 = CARTESIAN_POINT ( 'NONE',  ( 0.000000000000000000, 0.000000000000000000, 100.0000000000000000 ) ) ;
#42 = COORDINATED_UNIVERSAL_TIME_OFFSET ( 1, 0, .AHEAD. ) ;
#43 = AXIS2_PLACEMENT_3D ( 'NONE', #234, #34, #164 ) ;
#44 = APPROVAL_STATUS ( 'not_yet_approved' ) ;
#45 = ORIENTED_EDGE ( 'NONE', *, *, #208, .T. ) ;
#46 = CALENDAR_DATE ( 2023, 12, 2 ) ;
#47 = PERSON ( 'NEURÈENÝ', 'NEURÈENÝ', 'NEURÈENÝ', ('NEURÈENÝ'), ('NEURÈENÝ'), ('NEURÈENÝ') ) ;
#48 = PERSON_AND_ORGANIZATION_ROLE ( 'creator' ) ;
#49 = EDGE_LOOP ( 'NONE', ( #57, #141 ) ) ;
#50 = LOCAL_TIME ( 12, 6, 48.00000000000000000, #240 ) ;
#51 = CC_DESIGN_PERSON_AND_ORGANIZATION_ASSIGNMENT ( #140, #178, ( #195 ) ) ;
#52 = DIRECTION ( 'NONE',  ( 0.000000000000000000, 0.000000000000000000, 1.000000000000000000 ) ) ;
#53 = VERTEX_POINT ( 'NONE', #76 ) ;
#54 = VERTEX_POINT ( 'NONE', #11 ) ;
#55 = CIRCLE ( 'NONE', #228, 6.000000000000000888 ) ;
#56 = ORIENTED_EDGE ( 'NONE', *, *, #8, .T. ) ;
#57 = ORIENTED_EDGE ( 'NONE', *, *, #156, .F. ) ;
#58 = DIRECTION ( 'NONE',  ( -1.000000000000000000, 0.000000000000000000, 0.000000000000000000 ) ) ;
#59 = VECTOR ( 'NONE', #210, 1000.000000000000000 ) ;
#60 = ADVANCED_FACE ( 'NONE', ( #89, #185 ), #93, .T. ) ;
#61 = AXIS2_PLACEMENT_3D ( 'NONE', #248, #78, #116 ) ;
#62 = UNCERTAINTY_MEASURE_WITH_UNIT (LENGTH_MEASURE( 1.000000000000000082E-05 ), #193, 'distance_accuracy_value', 'NONE');
#63 = DIRECTION ( 'NONE',  ( 0.000000000000000000, 0.000000000000000000, 1.000000000000000000 ) ) ;
#64 = DIRECTION ( 'NONE',  ( 0.000000000000000000, 0.000000000000000000, 1.000000000000000000 ) ) ;
#65 = CC_DESIGN_PERSON_AND_ORGANIZATION_ASSIGNMENT ( #24, #143, ( #142 ) ) ;
#66 = FACE_OUTER_BOUND ( 'NONE', #145, .T. ) ;
#67 = VERTEX_POINT ( 'NONE', #74 ) ;
#68 = DATE_TIME_ROLE ( 'creation_date' ) ;
#69 = ORIENTED_EDGE ( 'NONE', *, *, #165, .T. ) ;
#70 = APPROVAL ( #86, 'NEURÈENÝ' ) ;
#71 = FACE_OUTER_BOUND ( 'NONE', #73, .T. ) ;
#72 = ORIENTED_EDGE ( 'NONE', *, *, #156, .T. ) ;
#73 = EDGE_LOOP ( 'NONE', ( #207, #56 ) ) ;
#74 = CARTESIAN_POINT ( 'NONE',  ( 9.000000000000000000, 1.102182119232617714E-15, 7.000000000000000000 ) ) ;
#75 = LOCAL_TIME ( 12, 6, 48.00000000000000000, #203 ) ;
#76 = CARTESIAN_POINT ( 'NONE',  ( -9.000000000000000000, 0.000000000000000000, 0.000000000000000000 ) ) ;
#77 = PRODUCT_DEFINITION_SHAPE ( 'NONE', 'NONE',  #195 ) ;
#78 = DIRECTION ( 'NONE',  ( 0.000000000000000000, 0.000000000000000000, 1.000000000000000000 ) ) ;
#79 =( NAMED_UNIT ( * ) PLANE_ANGLE_UNIT ( ) SI_UNIT ( $, .RADIAN. ) );
#80 = DIRECTION ( 'NONE',  ( 1.000000000000000000, 0.000000000000000000, 0.000000000000000000 ) ) ;
#81 = ADVANCED_BREP_SHAPE_REPRESENTATION ( '4d06', ( #131, #96 ), #157 ) ;
#82 = DIRECTION ( 'NONE',  ( -1.000000000000000000, 0.000000000000000000, 0.000000000000000000 ) ) ;
#83 = CALENDAR_DATE ( 2023, 12, 2 ) ;
#84 = CC_DESIGN_DATE_AND_TIME_ASSIGNMENT ( #5, #68, ( #195 ) ) ;
#85 = DATE_AND_TIME ( #83, #75 ) ;
#86 = APPROVAL_STATUS ( 'not_yet_approved' ) ;
#87 = APPROVAL_PERSON_ORGANIZATION ( #118, #13, #104 ) ;
#88 = DATE_AND_TIME ( #106, #28 ) ;
#89 = FACE_BOUND ( 'NONE', #49, .T. ) ;
#90 = ORIENTED_EDGE ( 'NONE', *, *, #135, .T. ) ;
#91 = CIRCLE ( 'NONE', #61, 6.000000000000000888 ) ;
#92 = LINE ( 'NONE', #245, #59 ) ;
#93 = PLANE ( 'NONE',  #198 ) ;
#94 = DIRECTION ( 'NONE',  ( 1.000000000000000000, 0.000000000000000000, 0.000000000000000000 ) ) ;
#95 = CIRCLE ( 'NONE', #23, 9.000000000000000000 ) ;
#96 = AXIS2_PLACEMENT_3D ( 'NONE', #252, #63, #154 ) ;
#97 = CARTESIAN_POINT ( 'NONE',  ( 0.000000000000000000, 0.000000000000000000, 7.000000000000000000 ) ) ;
#98 = EDGE_CURVE ( 'NONE', #67, #54, #238, .T. ) ;
#99 = PRODUCT ( '4d06', '4d06', '', ( #214 ) ) ;
#100 = FACE_OUTER_BOUND ( 'NONE', #7, .T. ) ;
#101 = PERSON_AND_ORGANIZATION ( #47, #239 ) ;
#102 = CIRCLE ( 'NONE', #247, 6.000000000000000888 ) ;
#103 = PERSON_AND_ORGANIZATION_ROLE ( 'design_owner' ) ;
#104 = APPROVAL_ROLE ( '' ) ;
#105 = EDGE_LOOP ( 'NONE', ( #166, #90, #69, #168 ) ) ;
#106 = CALENDAR_DATE ( 2023, 12, 2 ) ;
#107 = ADVANCED_FACE ( 'NONE', ( #147 ), #169, .T. ) ;
#108 = ORIENTED_EDGE ( 'NONE', *, *, #235, .F. ) ;
#109 = ORIENTED_EDGE ( 'NONE', *, *, #165, .F. ) ;
#110 = LINE ( 'NONE', #231, #243 ) ;
#111 = CARTESIAN_POINT ( 'NONE',  ( 0.000000000000000000, 0.000000000000000000, 100.0000000000000000 ) ) ;
#112 = DIRECTION ( 'NONE',  ( 1.000000000000000000, 0.000000000000000000, 0.000000000000000000 ) ) ;
#113 = CYLINDRICAL_SURFACE ( 'NONE', #181, 6.000000000000000888 ) ;
#114 = DIRECTION ( 'NONE',  ( -0.000000000000000000, -0.000000000000000000, -1.000000000000000000 ) ) ;
#115 = SECURITY_CLASSIFICATION ( '', '', #201 ) ;
#116 = DIRECTION ( 'NONE',  ( 1.000000000000000000, 0.000000000000000000, 0.000000000000000000 ) ) ;
#117 = DIRECTION ( 'NONE',  ( 0.000000000000000000, 0.000000000000000000, 1.000000000000000000 ) ) ;
#118 = PERSON_AND_ORGANIZATION ( #47, #239 ) ;
#119 = VERTEX_POINT ( 'NONE', #242 ) ;
#120 = PERSON_AND_ORGANIZATION ( #47, #239 ) ;
#121 = VECTOR ( 'NONE', #114, 1000.000000000000000 ) ;
#122 = VERTEX_POINT ( 'NONE', #126 ) ;
#123 = DATE_TIME_ROLE ( 'classification_date' ) ;
#124 = AXIS2_PLACEMENT_3D ( 'NONE', #233, #244, #94 ) ;
#125 = DIRECTION ( 'NONE',  ( 1.000000000000000000, 0.000000000000000000, -0.000000000000000000 ) ) ;
#126 = CARTESIAN_POINT ( 'NONE',  ( 6.000000000000000888, 7.347880794884119736E-16, 7.000000000000000000 ) ) ;
#127 = ADVANCED_FACE ( 'NONE', ( #71 ), #146, .T. ) ;
#128 = ORIENTED_EDGE ( 'NONE', *, *, #135, .F. ) ;
#129 = EDGE_LOOP ( 'NONE', ( #45, #222 ) ) ;
#130 = ORIENTED_EDGE ( 'NONE', *, *, #40, .T. ) ;
#131 = MANIFOLD_SOLID_BREP ( 'Pøidat vysunutím3', #35 ) ;
#132 =( NAMED_UNIT ( * ) SI_UNIT ( $, .STERADIAN. ) SOLID_ANGLE_UNIT ( ) );
#133 = APPLICATION_PROTOCOL_DEFINITION ( 'international standard', 'config_control_design', 1994, #254 ) ;
#134 = CYLINDRICAL_SURFACE ( 'NONE', #190, 6.000000000000000888 ) ;
#135 = EDGE_CURVE ( 'NONE', #67, #119, #205, .T. ) ;
#136 = DIRECTION ( 'NONE',  ( -1.000000000000000000, 0.000000000000000000, 0.000000000000000000 ) ) ;
#137 = APPLICATION_CONTEXT ( 'configuration controlled 3d designs of mechanical parts and assemblies' ) ;
#138 = LOCAL_TIME ( 12, 6, 48.00000000000000000, #25 ) ;
#139 = DIRECTION ( 'NONE',  ( 0.000000000000000000, 0.000000000000000000, 1.000000000000000000 ) ) ;
#140 = PERSON_AND_ORGANIZATION ( #47, #239 ) ;
#141 = ORIENTED_EDGE ( 'NONE', *, *, #221, .F. ) ;
#142 = PRODUCT_DEFINITION_FORMATION_WITH_SPECIFIED_SOURCE ( 'LIBOVOLNÝ', '', #99, .NOT_KNOWN. ) ;
#143 = PERSON_AND_ORGANIZATION_ROLE ( 'design_supplier' ) ;
#144 = CALENDAR_DATE ( 2023, 12, 2 ) ;
#145 = EDGE_LOOP ( 'NONE', ( #128, #241, #26, #209 ) ) ;
#146 = PLANE ( 'NONE',  #14 ) ;
#147 = FACE_OUTER_BOUND ( 'NONE', #105, .T. ) ;
#148 = VERTEX_POINT ( 'NONE', #212 ) ;
#149 = DESIGN_CONTEXT ( 'detailed design', #137, 'design' ) ;
#150 = DIRECTION ( 'NONE',  ( 1.000000000000000000, 0.000000000000000000, -0.000000000000000000 ) ) ;
#151 = ADVANCED_FACE ( 'NONE', ( #66 ), #15, .T. ) ;
#152 = DIRECTION ( 'NONE',  ( 0.000000000000000000, 0.000000000000000000, 1.000000000000000000 ) ) ;
#153 = DIRECTION ( 'NONE',  ( -0.000000000000000000, -0.000000000000000000, -1.000000000000000000 ) ) ;
#154 = DIRECTION ( 'NONE',  ( 1.000000000000000000, 0.000000000000000000, 0.000000000000000000 ) ) ;
#155 = LINE ( 'NONE', #218, #121 ) ;
#156 = EDGE_CURVE ( 'NONE', #148, #122, #250, .T. ) ;
#157 =( GEOMETRIC_REPRESENTATION_CONTEXT ( 3 ) GLOBAL_UNCERTAINTY_ASSIGNED_CONTEXT ( ( #62 ) ) GLOBAL_UNIT_ASSIGNED_CONTEXT ( ( #193, #79, #132 ) ) REPRESENTATION_CONTEXT ( 'NONE', 'WORKASPACE' ) );
#158 = SHAPE_DEFINITION_REPRESENTATION ( #77, #81 ) ;
#159 = APPROVAL_DATE_TIME ( #85, #13 ) ;
#160 = APPROVAL_DATE_TIME ( #253, #70 ) ;
#161 = CC_DESIGN_APPROVAL ( #70, ( #195 ) ) ;
#162 = ADVANCED_FACE ( 'NONE', ( #36 ), #113, .T. ) ;
#163 = CALENDAR_DATE ( 2023, 12, 2 ) ;
#164 = DIRECTION ( 'NONE',  ( -1.000000000000000000, 0.000000000000000000, 0.000000000000000000 ) ) ;
#165 = EDGE_CURVE ( 'NONE', #119, #53, #211, .T. ) ;
#166 = ORIENTED_EDGE ( 'NONE', *, *, #98, .F. ) ;
#167 = CARTESIAN_POINT ( 'NONE',  ( 0.000000000000000000, 0.000000000000000000, 0.000000000000000000 ) ) ;
#168 = ORIENTED_EDGE ( 'NONE', *, *, #18, .F. ) ;
#169 = CYLINDRICAL_SURFACE ( 'NONE', #43, 9.000000000000000000 ) ;
#170 = CC_DESIGN_PERSON_AND_ORGANIZATION_ASSIGNMENT ( #175, #103, ( #99 ) ) ;
#171 = CC_DESIGN_SECURITY_CLASSIFICATION ( #115, ( #142 ) ) ;
#172 = FACE_OUTER_BOUND ( 'NONE', #189, .T. ) ;
#173 = PLANE ( 'NONE',  #200 ) ;
#174 = LOCAL_TIME ( 12, 6, 48.00000000000000000, #180 ) ;
#175 = PERSON_AND_ORGANIZATION ( #47, #239 ) ;
#176 = DATE_AND_TIME ( #163, #138 ) ;
#177 = APPLICATION_PROTOCOL_DEFINITION ( 'international standard', 'config_control_design', 1994, #137 ) ;
#178 = PERSON_AND_ORGANIZATION_ROLE ( 'creator' ) ;
#179 = ORIENTED_EDGE ( 'NONE', *, *, #221, .T. ) ;
#180 = COORDINATED_UNIVERSAL_TIME_OFFSET ( 1, 0, .AHEAD. ) ;
#181 = AXIS2_PLACEMENT_3D ( 'NONE', #41, #38, #82 ) ;
#182 = EDGE_CURVE ( 'NONE', #1, #30, #55, .T. ) ;
#183 = ORIENTED_EDGE ( 'NONE', *, *, #182, .F. ) ;
#184 = VECTOR ( 'NONE', #29, 1000.000000000000000 ) ;
#185 = FACE_OUTER_BOUND ( 'NONE', #129, .T. ) ;
#186 = CARTESIAN_POINT ( 'NONE',  ( 6.000000000000000888, 7.347880794884119736E-16, 100.0000000000000000 ) ) ;
#187 = CARTESIAN_POINT ( 'NONE',  ( 0.000000000000000000, 0.000000000000000000, 7.000000000000000000 ) ) ;
#188 = AXIS2_PLACEMENT_3D ( 'NONE', #237, #17, #136 ) ;
#189 = EDGE_LOOP ( 'NONE', ( #226, #183, #3, #72 ) ) ;
#190 = AXIS2_PLACEMENT_3D ( 'NONE', #19, #153, #58 ) ;
#191 = DIRECTION ( 'NONE',  ( 1.000000000000000000, 0.000000000000000000, 0.000000000000000000 ) ) ;
#192 = ADVANCED_FACE ( 'NONE', ( #172 ), #134, .T. ) ;
#193 =( LENGTH_UNIT ( ) NAMED_UNIT ( * ) SI_UNIT ( .MILLI., .METRE. ) );
#194 = CC_DESIGN_APPROVAL ( #204, ( #142 ) ) ;
#195 = PRODUCT_DEFINITION ( 'NEZNÁMÝ', '', #142, #149 ) ;
#196 = PERSON_AND_ORGANIZATION ( #47, #239 ) ;
#197 = APPROVAL_DATE_TIME ( #88, #204 ) ;
#198 = AXIS2_PLACEMENT_3D ( 'NONE', #187, #246, #150 ) ;
#199 = ORIENTED_EDGE ( 'NONE', *, *, #8, .F. ) ;
#200 = AXIS2_PLACEMENT_3D ( 'NONE', #249, #251, #20 ) ;
#201 = SECURITY_CLASSIFICATION_LEVEL ( 'unclassified' ) ;
#202 = CC_DESIGN_PERSON_AND_ORGANIZATION_ASSIGNMENT ( #120, #48, ( #142 ) ) ;
#203 = COORDINATED_UNIVERSAL_TIME_OFFSET ( 1, 0, .AHEAD. ) ;
#204 = APPROVAL ( #220, 'NEURÈENÝ' ) ;
#205 = LINE ( 'NONE', #206, #184 ) ;
#206 = CARTESIAN_POINT ( 'NONE',  ( 9.000000000000000000, 1.102182119232617714E-15, 7.000000000000000000 ) ) ;
#207 = ORIENTED_EDGE ( 'NONE', *, *, #182, .T. ) ;
#208 = EDGE_CURVE ( 'NONE', #54, #67, #255, .T. ) ;
#209 = ORIENTED_EDGE ( 'NONE', *, *, #22, .T. ) ;
#210 = DIRECTION ( 'NONE',  ( -0.000000000000000000, -0.000000000000000000, -1.000000000000000000 ) ) ;
#211 = CIRCLE ( 'NONE', #4, 9.000000000000000000 ) ;
#212 = CARTESIAN_POINT ( 'NONE',  ( -6.000000000000000888, 0.000000000000000000, 7.000000000000000000 ) ) ;
#213 = ADVANCED_FACE ( 'NONE', ( #100 ), #173, .F. ) ;
#214 = MECHANICAL_CONTEXT ( 'NONE', #254, 'mechanical' ) ;
#215 = CARTESIAN_POINT ( 'NONE',  ( 0.000000000000000000, 0.000000000000000000, 0.000000000000000000 ) ) ;
#216 = DIRECTION ( 'NONE',  ( 1.000000000000000000, 0.000000000000000000, 0.000000000000000000 ) ) ;
#217 = CC_DESIGN_APPROVAL ( #13, ( #115 ) ) ;
#218 = CARTESIAN_POINT ( 'NONE',  ( -6.000000000000000888, 0.000000000000000000, 100.0000000000000000 ) ) ;
#219 = EDGE_LOOP ( 'NONE', ( #199, #130, #179, #108 ) ) ;
#220 = APPROVAL_STATUS ( 'not_yet_approved' ) ;
#221 = EDGE_CURVE ( 'NONE', #122, #148, #91, .T. ) ;
#222 = ORIENTED_EDGE ( 'NONE', *, *, #98, .T. ) ;
#223 = APPROVAL_PERSON_ORGANIZATION ( #101, #70, #27 ) ;
#224 = PRODUCT_RELATED_PRODUCT_CATEGORY ( 'detail', '', ( #99 ) ) ;
#225 = PERSON_AND_ORGANIZATION ( #47, #239 ) ;
#226 = ORIENTED_EDGE ( 'NONE', *, *, #40, .F. ) ;
#227 = AXIS2_PLACEMENT_3D ( 'NONE', #97, #117, #216 ) ;
#228 = AXIS2_PLACEMENT_3D ( 'NONE', #37, #64, #191 ) ;
#229 = CARTESIAN_POINT ( 'NONE',  ( 0.000000000000000000, 0.000000000000000000, 100.0000000000000000 ) ) ;
#230 = DIRECTION ( 'NONE',  ( 0.000000000000000000, 0.000000000000000000, 1.000000000000000000 ) ) ;
#231 = CARTESIAN_POINT ( 'NONE',  ( -9.000000000000000000, 0.000000000000000000, 7.000000000000000000 ) ) ;
#232 = CC_DESIGN_DATE_AND_TIME_ASSIGNMENT ( #176, #123, ( #115 ) ) ;
#233 = CARTESIAN_POINT ( 'NONE',  ( 0.000000000000000000, 0.000000000000000000, 7.000000000000000000 ) ) ;
#234 = CARTESIAN_POINT ( 'NONE',  ( 0.000000000000000000, 0.000000000000000000, 7.000000000000000000 ) ) ;
#235 = EDGE_CURVE ( 'NONE', #1, #148, #155, .T. ) ;
#236 = DIRECTION ( 'NONE',  ( 1.000000000000000000, 0.000000000000000000, 0.000000000000000000 ) ) ;
#237 = CARTESIAN_POINT ( 'NONE',  ( 0.000000000000000000, 0.000000000000000000, 7.000000000000000000 ) ) ;
#238 = CIRCLE ( 'NONE', #124, 9.000000000000000000 ) ;
#239 = ORGANIZATION ( 'NEURÈENÝ', 'NEURÈENÝ', '' ) ;
#240 = COORDINATED_UNIVERSAL_TIME_OFFSET ( 1, 0, .AHEAD. ) ;
#241 = ORIENTED_EDGE ( 'NONE', *, *, #208, .F. ) ;
#242 = CARTESIAN_POINT ( 'NONE',  ( 9.000000000000000000, 1.102182119232617714E-15, 0.000000000000000000 ) ) ;
#243 = VECTOR ( 'NONE', #10, 1000.000000000000000 ) ;
#244 = DIRECTION ( 'NONE',  ( 0.000000000000000000, 0.000000000000000000, 1.000000000000000000 ) ) ;
#245 = CARTESIAN_POINT ( 'NONE',  ( 6.000000000000000888, 7.347880794884119736E-16, 100.0000000000000000 ) ) ;
#246 = DIRECTION ( 'NONE',  ( 0.000000000000000000, 0.000000000000000000, 1.000000000000000000 ) ) ;
#247 = AXIS2_PLACEMENT_3D ( 'NONE', #111, #230, #112 ) ;
#248 = CARTESIAN_POINT ( 'NONE',  ( 0.000000000000000000, 0.000000000000000000, 7.000000000000000000 ) ) ;
#249 = CARTESIAN_POINT ( 'NONE',  ( 0.000000000000000000, 0.000000000000000000, 0.000000000000000000 ) ) ;
#250 = CIRCLE ( 'NONE', #227, 6.000000000000000888 ) ;
#251 = DIRECTION ( 'NONE',  ( 0.000000000000000000, 0.000000000000000000, 1.000000000000000000 ) ) ;
#252 = CARTESIAN_POINT ( 'NONE',  ( 0.000000000000000000, 0.000000000000000000, 0.000000000000000000 ) ) ;
#253 = DATE_AND_TIME ( #46, #174 ) ;
#254 = APPLICATION_CONTEXT ( 'configuration controlled 3d designs of mechanical parts and assemblies' ) ;
#255 = CIRCLE ( 'NONE', #31, 9.000000000000000000 ) ;
ENDSEC;
END-ISO-10303-21;
