ISO-10303-21;
HEADER;
FILE_DESCRIPTION (( 'STEP AP203' ),
    '1' );
FILE_NAME ('06cb.STEP',
    '2022-07-07T10:29:14',
    ( '' ),
    ( '' ),
    'SwSTEP 2.0',
    'SolidWorks 2019',
    '' );
FILE_SCHEMA (( 'CONFIG_CONTROL_DESIGN' ));
ENDSEC;

DATA;
#1 = ORIENTED_EDGE ( 'NONE', *, *, #226, .T. ) ;
#2 = AXIS2_PLACEMENT_3D ( 'NONE', #196, #204, #250 ) ;
#3 = VERTEX_POINT ( 'NONE', #271 ) ;
#4 = DIRECTION ( 'NONE',  ( -0.000000000000000000, -0.000000000000000000, -1.000000000000000000 ) ) ;
#5 = DIRECTION ( 'NONE',  ( -0.000000000000000000, -0.000000000000000000, -1.000000000000000000 ) ) ;
#6 = AXIS2_PLACEMENT_3D ( 'NONE', #225, #202, #249 ) ;
#7 = CARTESIAN_POINT ( 'NONE',  ( -1.600000000000000089, 0.000000000000000000, 403.0000000000000000 ) ) ;
#8 = CIRCLE ( 'NONE', #139, 1.600000000000000089 ) ;
#9 = LINE ( 'NONE', #13, #97 ) ;
#10 = DIRECTION ( 'NONE',  ( 0.000000000000000000, 0.000000000000000000, 1.000000000000000000 ) ) ;
#11 = EDGE_LOOP ( 'NONE', ( #243, #268 ) ) ;
#12 = CYLINDRICAL_SURFACE ( 'NONE', #83, 1.600000000000000089 ) ;
#13 = CARTESIAN_POINT ( 'NONE',  ( 1.600000000000000089, 1.959434878635765230E-16, 403.0000000000000000 ) ) ;
#14 = EDGE_CURVE ( 'NONE', #146, #269, #60, .T. ) ;
#15 = FACE_OUTER_BOUND ( 'NONE', #292, .T. ) ;
#16 = CYLINDRICAL_SURFACE ( 'NONE', #283, 3.000000000000000444 ) ;
#17 = DIRECTION ( 'NONE',  ( -1.000000000000000000, 0.000000000000000000, 0.000000000000000000 ) ) ;
#18 = APPROVAL_STATUS ( 'not_yet_approved' ) ;
#19 = APPROVAL_DATE_TIME ( #187, #194 ) ;
#20 = SHAPE_DEFINITION_REPRESENTATION ( #305, #171 ) ;
#21 = EDGE_LOOP ( 'NONE', ( #77, #173, #118, #49 ) ) ;
#22 = ADVANCED_FACE ( 'NONE', ( #123 ), #295, .T. ) ;
#23 = ORIENTED_EDGE ( 'NONE', *, *, #27, .T. ) ;
#24 = DIRECTION ( 'NONE',  ( 1.000000000000000000, 0.000000000000000000, 0.000000000000000000 ) ) ;
#25 = ORIENTED_EDGE ( 'NONE', *, *, #116, .T. ) ;
#26 = FACE_BOUND ( 'NONE', #28, .T. ) ;
#27 = EDGE_CURVE ( 'NONE', #151, #146, #9, .T. ) ;
#28 = EDGE_LOOP ( 'NONE', ( #241, #168 ) ) ;
#29 = DIRECTION ( 'NONE',  ( 1.000000000000000000, 0.000000000000000000, 0.000000000000000000 ) ) ;
#30 = CC_DESIGN_APPROVAL ( #262, ( #303 ) ) ;
#31 = FACE_OUTER_BOUND ( 'NONE', #260, .T. ) ;
#32 = DIRECTION ( 'NONE',  ( 1.000000000000000000, 0.000000000000000000, 0.000000000000000000 ) ) ;
#33 = DIRECTION ( 'NONE',  ( -1.000000000000000000, 0.000000000000000000, 0.000000000000000000 ) ) ;
#34 = MANIFOLD_SOLID_BREP ( 'Zaoblit1', #67 ) ;
#35 = FACE_OUTER_BOUND ( 'NONE', #282, .T. ) ;
#36 = DIRECTION ( 'NONE',  ( -0.000000000000000000, -0.000000000000000000, -1.000000000000000000 ) ) ;
#37 = SECURITY_CLASSIFICATION ( '', '', #238 ) ;
#38 = APPROVAL_DATE_TIME ( #237, #262 ) ;
#39 = APPROVAL_ROLE ( '' ) ;
#40 = LOCAL_TIME ( 12, 29, 14.00000000000000000, #113 ) ;
#41 = DIRECTION ( 'NONE',  ( 0.000000000000000000, 0.000000000000000000, 1.000000000000000000 ) ) ;
#42 = ADVANCED_FACE ( 'NONE', ( #31 ), #129, .T. ) ;
#43 = PERSON_AND_ORGANIZATION ( #66, #190 ) ;
#44 = ORIENTED_EDGE ( 'NONE', *, *, #172, .F. ) ;
#45 = TOROIDAL_SURFACE ( 'NONE', #76, 1.800000000000000266, 0.2000000000000000111 ) ;
#46 = VECTOR ( 'NONE', #275, 1000.000000000000000 ) ;
#47 = ORIENTED_EDGE ( 'NONE', *, *, #188, .F. ) ;
#48 = ORIENTED_EDGE ( 'NONE', *, *, #61, .F. ) ;
#49 = ORIENTED_EDGE ( 'NONE', *, *, #14, .F. ) ;
#50 = ORIENTED_EDGE ( 'NONE', *, *, #27, .F. ) ;
#51 = ORIENTED_EDGE ( 'NONE', *, *, #246, .T. ) ;
#52 = DIRECTION ( 'NONE',  ( 1.000000000000000000, 0.000000000000000000, 0.000000000000000000 ) ) ;
#53 = VERTEX_POINT ( 'NONE', #147 ) ;
#54 = CARTESIAN_POINT ( 'NONE',  ( 0.000000000000000000, 0.000000000000000000, 0.000000000000000000 ) ) ;
#55 = AXIS2_PLACEMENT_3D ( 'NONE', #78, #248, #79 ) ;
#56 = ORIENTED_EDGE ( 'NONE', *, *, #116, .F. ) ;
#57 = ORIENTED_EDGE ( 'NONE', *, *, #200, .F. ) ;
#58 = DIRECTION ( 'NONE',  ( -0.000000000000000000, -0.000000000000000000, -1.000000000000000000 ) ) ;
#59 = COORDINATED_UNIVERSAL_TIME_OFFSET ( 1, 0, .AHEAD. ) ;
#60 = CIRCLE ( 'NONE', #106, 0.2000000000000000944 ) ;
#61 = EDGE_CURVE ( 'NONE', #3, #53, #220, .T. ) ;
#62 = PERSON_AND_ORGANIZATION ( #66, #190 ) ;
#63 = CALENDAR_DATE ( 2022, 7, 7 ) ;
#64 = CARTESIAN_POINT ( 'NONE',  ( 0.000000000000000000, 0.000000000000000000, 0.000000000000000000 ) ) ;
#65 = EDGE_LOOP ( 'NONE', ( #252, #96, #89, #195 ) ) ;
#66 = PERSON ( 'NEURÈENÝ', 'NEURÈENÝ', 'NEURÈENÝ', ('NEURÈENÝ'), ('NEURÈENÝ'), ('NEURÈENÝ') ) ;
#67 = CLOSED_SHELL ( 'NONE', ( #92, #134, #126, #91, #267, #236, #22, #42, #69 ) ) ;
#68 = AXIS2_PLACEMENT_3D ( 'NONE', #278, #176, #217 ) ;
#69 = ADVANCED_FACE ( 'NONE', ( #180 ), #45, .F. ) ;
#70 = CC_DESIGN_APPROVAL ( #244, ( #37 ) ) ;
#71 = DIRECTION ( 'NONE',  ( 0.000000000000000000, 0.000000000000000000, 1.000000000000000000 ) ) ;
#72 = CARTESIAN_POINT ( 'NONE',  ( 0.000000000000000000, 0.000000000000000000, 403.0000000000000000 ) ) ;
#73 = DIRECTION ( 'NONE',  ( 0.000000000000000000, 0.000000000000000000, 1.000000000000000000 ) ) ;
#74 = DIRECTION ( 'NONE',  ( 1.000000000000000000, 0.000000000000000000, 0.000000000000000000 ) ) ;
#75 = ORIENTED_EDGE ( 'NONE', *, *, #188, .T. ) ;
#76 = AXIS2_PLACEMENT_3D ( 'NONE', #222, #73, #24 ) ;
#77 = ORIENTED_EDGE ( 'NONE', *, *, #85, .F. ) ;
#78 = CARTESIAN_POINT ( 'NONE',  ( 0.000000000000000000, 0.000000000000000000, 403.0000000000000000 ) ) ;
#79 = DIRECTION ( 'NONE',  ( 1.000000000000000000, 0.000000000000000000, 0.000000000000000000 ) ) ;
#80 = EDGE_CURVE ( 'NONE', #53, #170, #218, .T. ) ;
#81 = CALENDAR_DATE ( 2022, 7, 7 ) ;
#82 = AXIS2_PLACEMENT_3D ( 'NONE', #177, #4, #289 ) ;
#83 = AXIS2_PLACEMENT_3D ( 'NONE', #205, #125, #277 ) ;
#84 = PRODUCT ( '06cb', '06cb', '', ( #137 ) ) ;
#85 = EDGE_CURVE ( 'NONE', #276, #146, #115, .T. ) ;
#86 = CIRCLE ( 'NONE', #132, 3.000000000000000444 ) ;
#87 = LOCAL_TIME ( 12, 29, 14.00000000000000000, #235 ) ;
#88 = LOCAL_TIME ( 12, 29, 14.00000000000000000, #232 ) ;
#89 = ORIENTED_EDGE ( 'NONE', *, *, #61, .T. ) ;
#90 = APPROVAL_STATUS ( 'not_yet_approved' ) ;
#91 = ADVANCED_FACE ( 'NONE', ( #199 ), #293, .T. ) ;
#92 = ADVANCED_FACE ( 'NONE', ( #274 ), #167, .F. ) ;
#93 = APPROVAL_PERSON_ORGANIZATION ( #158, #194, #306 ) ;
#94 = ORIENTED_EDGE ( 'NONE', *, *, #142, .F. ) ;
#95 = CARTESIAN_POINT ( 'NONE',  ( 0.000000000000000000, 0.000000000000000000, 3.000000000000000000 ) ) ;
#96 = ORIENTED_EDGE ( 'NONE', *, *, #246, .F. ) ;
#97 = VECTOR ( 'NONE', #5, 1000.000000000000000 ) ;
#98 = PRODUCT_DEFINITION_FORMATION_WITH_SPECIFIED_SOURCE ( 'LIBOVOLNÝ', '', #84, .NOT_KNOWN. ) ;
#99 = CARTESIAN_POINT ( 'NONE',  ( 3.000000000000000444, 3.673940397442060361E-16, 3.000000000000000000 ) ) ;
#100 = EDGE_LOOP ( 'NONE', ( #51, #25 ) ) ;
#101 =( NAMED_UNIT ( * ) PLANE_ANGLE_UNIT ( ) SI_UNIT ( $, .RADIAN. ) );
#102 = PRODUCT_RELATED_PRODUCT_CATEGORY ( 'detail', '', ( #84 ) ) ;
#103 = DIRECTION ( 'NONE',  ( 0.000000000000000000, 0.000000000000000000, 1.000000000000000000 ) ) ;
#104 = CARTESIAN_POINT ( 'NONE',  ( -1.800000000000000266, 2.204364238465236069E-16, 2.999999999999990674 ) ) ;
#105 = CARTESIAN_POINT ( 'NONE',  ( -3.000000000000000444, 0.000000000000000000, 3.000000000000000000 ) ) ;
#106 = AXIS2_PLACEMENT_3D ( 'NONE', #120, #149, #245 ) ;
#107 = CARTESIAN_POINT ( 'NONE',  ( 0.000000000000000000, 0.000000000000000000, 3.000000000000000000 ) ) ;
#108 = APPROVAL_PERSON_ORGANIZATION ( #207, #262, #39 ) ;
#109 = CARTESIAN_POINT ( 'NONE',  ( 1.600000000000000089, 1.959434878635765230E-16, 3.199999999999980638 ) ) ;
#110 = DATE_TIME_ROLE ( 'creation_date' ) ;
#111 = AXIS2_PLACEMENT_3D ( 'NONE', #64, #41, #140 ) ;
#112 = PERSON_AND_ORGANIZATION ( #66, #190 ) ;
#113 = COORDINATED_UNIVERSAL_TIME_OFFSET ( 1, 0, .AHEAD. ) ;
#114 = PERSON_AND_ORGANIZATION_ROLE ( 'design_supplier' ) ;
#115 = CIRCLE ( 'NONE', #287, 1.600000000000000089 ) ;
#116 = EDGE_CURVE ( 'NONE', #213, #3, #86, .T. ) ;
#117 = AXIS2_PLACEMENT_3D ( 'NONE', #107, #10, #32 ) ;
#118 = ORIENTED_EDGE ( 'NONE', *, *, #145, .F. ) ;
#119 = CIRCLE ( 'NONE', #163, 0.1999999999999998723 ) ;
#120 = CARTESIAN_POINT ( 'NONE',  ( 1.800000000000000266, 0.000000000000000000, 3.199999999999980638 ) ) ;
#121 = DIRECTION ( 'NONE',  ( 0.000000000000000000, 0.000000000000000000, 1.000000000000000000 ) ) ;
#122 = CARTESIAN_POINT ( 'NONE',  ( 3.000000000000000444, 3.673940397442060361E-16, 0.000000000000000000 ) ) ;
#123 = FACE_OUTER_BOUND ( 'NONE', #164, .T. ) ;
#124 = CIRCLE ( 'NONE', #133, 1.600000000000000089 ) ;
#125 = DIRECTION ( 'NONE',  ( -0.000000000000000000, -0.000000000000000000, -1.000000000000000000 ) ) ;
#126 = ADVANCED_FACE ( 'NONE', ( #35 ), #16, .T. ) ;
#127 = ORIENTED_EDGE ( 'NONE', *, *, #285, .T. ) ;
#128 = CARTESIAN_POINT ( 'NONE',  ( 3.000000000000000444, 3.673940397442060361E-16, 3.000000000000000000 ) ) ;
#129 = PLANE ( 'NONE',  #6 ) ;
#130 = DIRECTION ( 'NONE',  ( 0.000000000000000000, 0.000000000000000000, 1.000000000000000000 ) ) ;
#131 = DIRECTION ( 'NONE',  ( 1.000000000000000000, 0.000000000000000000, 0.000000000000000000 ) ) ;
#132 = AXIS2_PLACEMENT_3D ( 'NONE', #95, #156, #229 ) ;
#133 = AXIS2_PLACEMENT_3D ( 'NONE', #72, #174, #29 ) ;
#134 = ADVANCED_FACE ( 'NONE', ( #15 ), #12, .T. ) ;
#135 = LINE ( 'NONE', #99, #46 ) ;
#136 = PERSON_AND_ORGANIZATION_ROLE ( 'creator' ) ;
#137 = MECHANICAL_CONTEXT ( 'NONE', #254, 'mechanical' ) ;
#138 = PERSON_AND_ORGANIZATION_ROLE ( 'design_owner' ) ;
#139 = AXIS2_PLACEMENT_3D ( 'NONE', #256, #130, #52 ) ;
#140 = DIRECTION ( 'NONE',  ( 1.000000000000000000, 0.000000000000000000, 0.000000000000000000 ) ) ;
#141 = PERSON_AND_ORGANIZATION ( #66, #190 ) ;
#142 = EDGE_CURVE ( 'NONE', #276, #144, #119, .T. ) ;
#143 = ORIENTED_EDGE ( 'NONE', *, *, #200, .T. ) ;
#144 = VERTEX_POINT ( 'NONE', #104 ) ;
#145 = EDGE_CURVE ( 'NONE', #269, #144, #206, .T. ) ;
#146 = VERTEX_POINT ( 'NONE', #109 ) ;
#147 = CARTESIAN_POINT ( 'NONE',  ( -3.000000000000000444, 0.000000000000000000, 0.000000000000000000 ) ) ;
#148 = DIRECTION ( 'NONE',  ( 1.000000000000000000, 0.000000000000000000, -0.000000000000000000 ) ) ;
#149 = DIRECTION ( 'NONE',  ( 0.000000000000000000, -1.000000000000000000, 0.000000000000000000 ) ) ;
#150 = PLANE ( 'NONE',  #219 ) ;
#151 = VERTEX_POINT ( 'NONE', #157 ) ;
#152 = VECTOR ( 'NONE', #36, 1000.000000000000000 ) ;
#153 = LINE ( 'NONE', #7, #152 ) ;
#154 = VERTEX_POINT ( 'NONE', #294 ) ;
#155 = CARTESIAN_POINT ( 'NONE',  ( 0.000000000000000000, 0.000000000000000000, 0.000000000000000000 ) ) ;
#156 = DIRECTION ( 'NONE',  ( 0.000000000000000000, 0.000000000000000000, 1.000000000000000000 ) ) ;
#157 = CARTESIAN_POINT ( 'NONE',  ( 1.600000000000000089, 1.959434878635765230E-16, 403.0000000000000000 ) ) ;
#158 = PERSON_AND_ORGANIZATION ( #66, #190 ) ;
#159 = CALENDAR_DATE ( 2022, 7, 7 ) ;
#160 = CC_DESIGN_PERSON_AND_ORGANIZATION_ASSIGNMENT ( #62, #302, ( #37 ) ) ;
#161 = APPROVAL_DATE_TIME ( #304, #244 ) ;
#162 = PERSON_AND_ORGANIZATION_ROLE ( 'creator' ) ;
#163 = AXIS2_PLACEMENT_3D ( 'NONE', #224, #231, #221 ) ;
#164 = EDGE_LOOP ( 'NONE', ( #50, #192, #143, #210 ) ) ;
#165 = EDGE_CURVE ( 'NONE', #170, #53, #284, .T. ) ;
#166 = CC_DESIGN_DATE_AND_TIME_ASSIGNMENT ( #208, #110, ( #303 ) ) ;
#167 = TOROIDAL_SURFACE ( 'NONE', #258, 1.800000000000000266, 0.2000000000000000111 ) ;
#168 = ORIENTED_EDGE ( 'NONE', *, *, #172, .T. ) ;
#169 = APPLICATION_CONTEXT ( 'configuration controlled 3d designs of mechanical parts and assemblies' ) ;
#170 = VERTEX_POINT ( 'NONE', #122 ) ;
#171 = ADVANCED_BREP_SHAPE_REPRESENTATION ( '06cb', ( #34, #111 ), #263 ) ;
#172 = EDGE_CURVE ( 'NONE', #144, #269, #203, .T. ) ;
#173 = ORIENTED_EDGE ( 'NONE', *, *, #142, .T. ) ;
#174 = DIRECTION ( 'NONE',  ( 0.000000000000000000, 0.000000000000000000, 1.000000000000000000 ) ) ;
#175 = CARTESIAN_POINT ( 'NONE',  ( 0.000000000000000000, 0.000000000000000000, 0.000000000000000000 ) ) ;
#176 = DIRECTION ( 'NONE',  ( -0.000000000000000000, -0.000000000000000000, -1.000000000000000000 ) ) ;
#177 = CARTESIAN_POINT ( 'NONE',  ( 0.000000000000000000, 0.000000000000000000, 3.000000000000000000 ) ) ;
#178 = LOCAL_TIME ( 12, 29, 14.00000000000000000, #59 ) ;
#179 = FACE_OUTER_BOUND ( 'NONE', #11, .T. ) ;
#180 = FACE_OUTER_BOUND ( 'NONE', #265, .T. ) ;
#181 =( LENGTH_UNIT ( ) NAMED_UNIT ( * ) SI_UNIT ( .MILLI., .METRE. ) );
#182 = FACE_OUTER_BOUND ( 'NONE', #100, .T. ) ;
#183 = CIRCLE ( 'NONE', #55, 1.600000000000000089 ) ;
#184 = APPROVAL_STATUS ( 'not_yet_approved' ) ;
#185 = CC_DESIGN_PERSON_AND_ORGANIZATION_ASSIGNMENT ( #112, #162, ( #98 ) ) ;
#186 = DATE_TIME_ROLE ( 'classification_date' ) ;
#187 = DATE_AND_TIME ( #211, #87 ) ;
#188 = EDGE_CURVE ( 'NONE', #146, #276, #8, .T. ) ;
#189 = APPROVAL_ROLE ( '' ) ;
#190 = ORGANIZATION ( 'NEURÈENÝ', 'NEURÈENÝ', '' ) ;
#191 = ORIENTED_EDGE ( 'NONE', *, *, #285, .F. ) ;
#192 = ORIENTED_EDGE ( 'NONE', *, *, #223, .F. ) ;
#193 = CARTESIAN_POINT ( 'NONE',  ( 0.000000000000000000, 0.000000000000000000, 3.199999999999980638 ) ) ;
#194 = APPROVAL ( #184, 'NEURÈENÝ' ) ;
#195 = ORIENTED_EDGE ( 'NONE', *, *, #80, .T. ) ;
#196 = CARTESIAN_POINT ( 'NONE',  ( 0.000000000000000000, 0.000000000000000000, 3.000000000000000000 ) ) ;
#197 = DIRECTION ( 'NONE',  ( -0.000000000000000000, -0.000000000000000000, -1.000000000000000000 ) ) ;
#198 = PLANE ( 'NONE',  #2 ) ;
#199 = FACE_OUTER_BOUND ( 'NONE', #65, .T. ) ;
#200 = EDGE_CURVE ( 'NONE', #154, #276, #153, .T. ) ;
#201 = DIRECTION ( 'NONE',  ( -0.000000000000000000, -0.000000000000000000, -1.000000000000000000 ) ) ;
#202 = DIRECTION ( 'NONE',  ( 0.000000000000000000, 0.000000000000000000, 1.000000000000000000 ) ) ;
#203 = CIRCLE ( 'NONE', #68, 1.800000000000000266 ) ;
#204 = DIRECTION ( 'NONE',  ( 0.000000000000000000, 0.000000000000000000, 1.000000000000000000 ) ) ;
#205 = CARTESIAN_POINT ( 'NONE',  ( 0.000000000000000000, 0.000000000000000000, 403.0000000000000000 ) ) ;
#206 = CIRCLE ( 'NONE', #230, 1.800000000000000266 ) ;
#207 = PERSON_AND_ORGANIZATION ( #66, #190 ) ;
#208 = DATE_AND_TIME ( #81, #178 ) ;
#209 = PERSON_AND_ORGANIZATION ( #66, #190 ) ;
#210 = ORIENTED_EDGE ( 'NONE', *, *, #85, .T. ) ;
#211 = CALENDAR_DATE ( 2022, 7, 7 ) ;
#212 = ORIENTED_EDGE ( 'NONE', *, *, #165, .T. ) ;
#213 = VERTEX_POINT ( 'NONE', #128 ) ;
#214 = CARTESIAN_POINT ( 'NONE',  ( 0.000000000000000000, 0.000000000000000000, 3.199999999999980638 ) ) ;
#215 = CARTESIAN_POINT ( 'NONE',  ( 0.000000000000000000, 0.000000000000000000, 403.0000000000000000 ) ) ;
#216 = CC_DESIGN_PERSON_AND_ORGANIZATION_ASSIGNMENT ( #43, #138, ( #84 ) ) ;
#217 = DIRECTION ( 'NONE',  ( 1.000000000000000000, 0.000000000000000000, 0.000000000000000000 ) ) ;
#218 = CIRCLE ( 'NONE', #300, 3.000000000000000444 ) ;
#219 = AXIS2_PLACEMENT_3D ( 'NONE', #54, #227, #148 ) ;
#220 = LINE ( 'NONE', #105, #228 ) ;
#221 = DIRECTION ( 'NONE',  ( -1.000000000000000000, 1.224646799147354686E-16, 0.000000000000000000 ) ) ;
#222 = CARTESIAN_POINT ( 'NONE',  ( 0.000000000000000000, 0.000000000000000000, 3.199999999999980638 ) ) ;
#223 = EDGE_CURVE ( 'NONE', #154, #151, #183, .T. ) ;
#224 = CARTESIAN_POINT ( 'NONE',  ( -1.800000000000000266, 2.204364238465236069E-16, 3.199999999999980638 ) ) ;
#225 = CARTESIAN_POINT ( 'NONE',  ( 0.000000000000000000, 0.000000000000000000, 403.0000000000000000 ) ) ;
#226 = EDGE_CURVE ( 'NONE', #213, #170, #135, .T. ) ;
#227 = DIRECTION ( 'NONE',  ( 0.000000000000000000, 0.000000000000000000, 1.000000000000000000 ) ) ;
#228 = VECTOR ( 'NONE', #197, 1000.000000000000000 ) ;
#229 = DIRECTION ( 'NONE',  ( 1.000000000000000000, 0.000000000000000000, 0.000000000000000000 ) ) ;
#230 = AXIS2_PLACEMENT_3D ( 'NONE', #298, #201, #74 ) ;
#231 = DIRECTION ( 'NONE',  ( 1.224646799147353207E-16, 1.000000000000000000, -0.000000000000000000 ) ) ;
#232 = COORDINATED_UNIVERSAL_TIME_OFFSET ( 1, 0, .AHEAD. ) ;
#233 = CALENDAR_DATE ( 2022, 7, 7 ) ;
#234 = LOCAL_TIME ( 12, 29, 14.00000000000000000, #257 ) ;
#235 = COORDINATED_UNIVERSAL_TIME_OFFSET ( 1, 0, .AHEAD. ) ;
#236 = ADVANCED_FACE ( 'NONE', ( #179 ), #150, .F. ) ;
#237 = DATE_AND_TIME ( #159, #234 ) ;
#238 = SECURITY_CLASSIFICATION_LEVEL ( 'unclassified' ) ;
#239 = DESIGN_CONTEXT ( 'detailed design', #169, 'design' ) ;
#240 = AXIS2_PLACEMENT_3D ( 'NONE', #215, #253, #33 ) ;
#241 = ORIENTED_EDGE ( 'NONE', *, *, #145, .T. ) ;
#242 = ORIENTED_EDGE ( 'NONE', *, *, #14, .T. ) ;
#243 = ORIENTED_EDGE ( 'NONE', *, *, #80, .F. ) ;
#244 = APPROVAL ( #90, 'NEURÈENÝ' ) ;
#245 = DIRECTION ( 'NONE',  ( 0.000000000000000000, 0.000000000000000000, -1.000000000000000000 ) ) ;
#246 = EDGE_CURVE ( 'NONE', #3, #213, #251, .T. ) ;
#247 = DIRECTION ( 'NONE',  ( 1.000000000000000000, 0.000000000000000000, 0.000000000000000000 ) ) ;
#248 = DIRECTION ( 'NONE',  ( 0.000000000000000000, 0.000000000000000000, 1.000000000000000000 ) ) ;
#249 = DIRECTION ( 'NONE',  ( 1.000000000000000000, 0.000000000000000000, -0.000000000000000000 ) ) ;
#250 = DIRECTION ( 'NONE',  ( 1.000000000000000000, 0.000000000000000000, -0.000000000000000000 ) ) ;
#251 = CIRCLE ( 'NONE', #117, 3.000000000000000444 ) ;
#252 = ORIENTED_EDGE ( 'NONE', *, *, #226, .F. ) ;
#253 = DIRECTION ( 'NONE',  ( -0.000000000000000000, -0.000000000000000000, -1.000000000000000000 ) ) ;
#254 = APPLICATION_CONTEXT ( 'configuration controlled 3d designs of mechanical parts and assemblies' ) ;
#255 = CARTESIAN_POINT ( 'NONE',  ( 0.000000000000000000, 0.000000000000000000, 3.000000000000000000 ) ) ;
#256 = CARTESIAN_POINT ( 'NONE',  ( 0.000000000000000000, 0.000000000000000000, 3.199999999999980638 ) ) ;
#257 = COORDINATED_UNIVERSAL_TIME_OFFSET ( 1, 0, .AHEAD. ) ;
#258 = AXIS2_PLACEMENT_3D ( 'NONE', #193, #71, #131 ) ;
#259 =( NAMED_UNIT ( * ) SI_UNIT ( $, .STERADIAN. ) SOLID_ANGLE_UNIT ( ) );
#260 = EDGE_LOOP ( 'NONE', ( #264, #127 ) ) ;
#261 = UNCERTAINTY_MEASURE_WITH_UNIT (LENGTH_MEASURE( 1.000000000000000082E-05 ), #181, 'distance_accuracy_value', 'NONE');
#262 = APPROVAL ( #18, 'NEURÈENÝ' ) ;
#263 =( GEOMETRIC_REPRESENTATION_CONTEXT ( 3 ) GLOBAL_UNCERTAINTY_ASSIGNED_CONTEXT ( ( #261 ) ) GLOBAL_UNIT_ASSIGNED_CONTEXT ( ( #181, #101, #259 ) ) REPRESENTATION_CONTEXT ( 'NONE', 'WORKASPACE' ) );
#264 = ORIENTED_EDGE ( 'NONE', *, *, #223, .T. ) ;
#265 = EDGE_LOOP ( 'NONE', ( #94, #47, #242, #44 ) ) ;
#266 = CC_DESIGN_DATE_AND_TIME_ASSIGNMENT ( #307, #186, ( #37 ) ) ;
#267 = ADVANCED_FACE ( 'NONE', ( #26, #182 ), #198, .T. ) ;
#268 = ORIENTED_EDGE ( 'NONE', *, *, #165, .F. ) ;
#269 = VERTEX_POINT ( 'NONE', #290 ) ;
#270 = DIRECTION ( 'NONE',  ( 0.000000000000000000, 0.000000000000000000, 1.000000000000000000 ) ) ;
#271 = CARTESIAN_POINT ( 'NONE',  ( -3.000000000000000444, 0.000000000000000000, 3.000000000000000000 ) ) ;
#272 = DIRECTION ( 'NONE',  ( 1.000000000000000000, 0.000000000000000000, 0.000000000000000000 ) ) ;
#273 = AXIS2_PLACEMENT_3D ( 'NONE', #155, #270, #272 ) ;
#274 = FACE_OUTER_BOUND ( 'NONE', #21, .T. ) ;
#275 = DIRECTION ( 'NONE',  ( -0.000000000000000000, -0.000000000000000000, -1.000000000000000000 ) ) ;
#276 = VERTEX_POINT ( 'NONE', #297 ) ;
#277 = DIRECTION ( 'NONE',  ( -1.000000000000000000, 0.000000000000000000, 0.000000000000000000 ) ) ;
#278 = CARTESIAN_POINT ( 'NONE',  ( 0.000000000000000000, 0.000000000000000000, 3.000000000000000000 ) ) ;
#279 = CC_DESIGN_APPROVAL ( #194, ( #98 ) ) ;
#280 = PERSON_AND_ORGANIZATION ( #66, #190 ) ;
#281 = APPLICATION_PROTOCOL_DEFINITION ( 'international standard', 'config_control_design', 1994, #254 ) ;
#282 = EDGE_LOOP ( 'NONE', ( #56, #1, #212, #48 ) ) ;
#283 = AXIS2_PLACEMENT_3D ( 'NONE', #255, #58, #17 ) ;
#284 = CIRCLE ( 'NONE', #273, 3.000000000000000444 ) ;
#285 = EDGE_CURVE ( 'NONE', #151, #154, #124, .T. ) ;
#286 = DIRECTION ( 'NONE',  ( 1.000000000000000000, 0.000000000000000000, 0.000000000000000000 ) ) ;
#287 = AXIS2_PLACEMENT_3D ( 'NONE', #214, #121, #286 ) ;
#288 = CC_DESIGN_SECURITY_CLASSIFICATION ( #37, ( #98 ) ) ;
#289 = DIRECTION ( 'NONE',  ( -1.000000000000000000, 0.000000000000000000, 0.000000000000000000 ) ) ;
#290 = CARTESIAN_POINT ( 'NONE',  ( 1.800000000000000266, 0.000000000000000000, 2.999999999999990674 ) ) ;
#291 = CC_DESIGN_PERSON_AND_ORGANIZATION_ASSIGNMENT ( #141, #136, ( #303 ) ) ;
#292 = EDGE_LOOP ( 'NONE', ( #191, #23, #75, #57 ) ) ;
#293 = CYLINDRICAL_SURFACE ( 'NONE', #82, 3.000000000000000444 ) ;
#294 = CARTESIAN_POINT ( 'NONE',  ( -1.600000000000000089, 0.000000000000000000, 403.0000000000000000 ) ) ;
#295 = CYLINDRICAL_SURFACE ( 'NONE', #240, 1.600000000000000089 ) ;
#296 = CC_DESIGN_PERSON_AND_ORGANIZATION_ASSIGNMENT ( #209, #114, ( #98 ) ) ;
#297 = CARTESIAN_POINT ( 'NONE',  ( -1.600000000000000089, 0.000000000000000000, 3.199999999999980638 ) ) ;
#298 = CARTESIAN_POINT ( 'NONE',  ( 0.000000000000000000, 0.000000000000000000, 3.000000000000000000 ) ) ;
#299 = APPLICATION_PROTOCOL_DEFINITION ( 'international standard', 'config_control_design', 1994, #169 ) ;
#300 = AXIS2_PLACEMENT_3D ( 'NONE', #175, #103, #247 ) ;
#301 = APPROVAL_PERSON_ORGANIZATION ( #280, #244, #189 ) ;
#302 = PERSON_AND_ORGANIZATION_ROLE ( 'classification_officer' ) ;
#303 = PRODUCT_DEFINITION ( 'NEZNÁMÝ', '', #98, #239 ) ;
#304 = DATE_AND_TIME ( #63, #40 ) ;
#305 = PRODUCT_DEFINITION_SHAPE ( 'NONE', 'NONE',  #303 ) ;
#306 = APPROVAL_ROLE ( '' ) ;
#307 = DATE_AND_TIME ( #233, #88 ) ;
ENDSEC;
END-ISO-10303-21;
