ISO-10303-21;
HEADER;
FILE_DESCRIPTION (( 'STEP AP203' ),
    '1' );
FILE_NAME ('00b7.STEP',
    '2022-07-07T10:23:07',
    ( '' ),
    ( '' ),
    'SwSTEP 2.0',
    'SolidWorks 2019',
    '' );
FILE_SCHEMA (( 'CONFIG_CONTROL_DESIGN' ));
ENDSEC;

DATA;
#1 = CIRCLE ( 'NONE', #79, 0.2000000000000000944 ) ;
#2 = PERSON_AND_ORGANIZATION_ROLE ( 'classification_officer' ) ;
#3 = APPROVAL_ROLE ( '' ) ;
#4 = AXIS2_PLACEMENT_3D ( 'NONE', #232, #253, #181 ) ;
#5 = ORIENTED_EDGE ( 'NONE', *, *, #285, .F. ) ;
#6 = EDGE_LOOP ( 'NONE', ( #140, #71 ) ) ;
#7 = EDGE_CURVE ( 'NONE', #59, #52, #196, .T. ) ;
#8 = FACE_OUTER_BOUND ( 'NONE', #66, .T. ) ;
#9 = DIRECTION ( 'NONE',  ( 1.000000000000000000, 0.000000000000000000, -0.000000000000000000 ) ) ;
#10 = APPROVAL_PERSON_ORGANIZATION ( #286, #23, #3 ) ;
#11 = DIRECTION ( 'NONE',  ( -1.000000000000000000, 1.224646799147353207E-16, 0.000000000000000000 ) ) ;
#12 = FACE_OUTER_BOUND ( 'NONE', #73, .T. ) ;
#13 = FACE_BOUND ( 'NONE', #6, .T. ) ;
#14 = VECTOR ( 'NONE', #179, 1000.000000000000000 ) ;
#15 = DIRECTION ( 'NONE',  ( -0.000000000000000000, -0.000000000000000000, -1.000000000000000000 ) ) ;
#16 = FACE_OUTER_BOUND ( 'NONE', #96, .T. ) ;
#17 = DIRECTION ( 'NONE',  ( -0.000000000000000000, -0.000000000000000000, -1.000000000000000000 ) ) ;
#18 = VERTEX_POINT ( 'NONE', #273 ) ;
#19 = AXIS2_PLACEMENT_3D ( 'NONE', #64, #17, #255 ) ;
#20 = DIRECTION ( 'NONE',  ( 1.000000000000000000, 0.000000000000000000, 0.000000000000000000 ) ) ;
#21 = ORIENTED_EDGE ( 'NONE', *, *, #152, .T. ) ;
#22 = CARTESIAN_POINT ( 'NONE',  ( 0.000000000000000000, 0.000000000000000000, 503.0000000000000000 ) ) ;
#23 = APPROVAL ( #290, 'NEURÈENÝ' ) ;
#24 = DATE_TIME_ROLE ( 'creation_date' ) ;
#25 = AXIS2_PLACEMENT_3D ( 'NONE', #31, #168, #262 ) ;
#26 = PERSON_AND_ORGANIZATION_ROLE ( 'design_supplier' ) ;
#27 = EDGE_CURVE ( 'NONE', #231, #104, #225, .T. ) ;
#28 = DATE_AND_TIME ( #148, #53 ) ;
#29 = ORIENTED_EDGE ( 'NONE', *, *, #155, .F. ) ;
#30 = AXIS2_PLACEMENT_3D ( 'NONE', #296, #194, #170 ) ;
#31 = CARTESIAN_POINT ( 'NONE',  ( 0.000000000000000000, 0.000000000000000000, 0.000000000000000000 ) ) ;
#32 = ORIENTED_EDGE ( 'NONE', *, *, #260, .T. ) ;
#33 = AXIS2_PLACEMENT_3D ( 'NONE', #207, #47, #142 ) ;
#34 = DIRECTION ( 'NONE',  ( 1.000000000000000000, 0.000000000000000000, 0.000000000000000000 ) ) ;
#35 = DIRECTION ( 'NONE',  ( 0.000000000000000000, 0.000000000000000000, 1.000000000000000000 ) ) ;
#36 = AXIS2_PLACEMENT_3D ( 'NONE', #200, #138, #158 ) ;
#37 = DIRECTION ( 'NONE',  ( 1.000000000000000000, 0.000000000000000000, -0.000000000000000000 ) ) ;
#38 = DIRECTION ( 'NONE',  ( 1.000000000000000000, 0.000000000000000000, 0.000000000000000000 ) ) ;
#39 = PLANE ( 'NONE',  #248 ) ;
#40 = DIRECTION ( 'NONE',  ( 0.000000000000000000, 0.000000000000000000, 1.000000000000000000 ) ) ;
#41 = CIRCLE ( 'NONE', #4, 4.000000000000000000 ) ;
#42 = EDGE_CURVE ( 'NONE', #18, #231, #1, .T. ) ;
#43 = DIRECTION ( 'NONE',  ( 1.000000000000000000, 0.000000000000000000, 0.000000000000000000 ) ) ;
#44 = FACE_OUTER_BOUND ( 'NONE', #45, .T. ) ;
#45 = EDGE_LOOP ( 'NONE', ( #292, #46, #60, #283 ) ) ;
#46 = ORIENTED_EDGE ( 'NONE', *, *, #289, .T. ) ;
#47 = DIRECTION ( 'NONE',  ( 0.000000000000000000, 0.000000000000000000, 1.000000000000000000 ) ) ;
#48 = ORIENTED_EDGE ( 'NONE', *, *, #203, .T. ) ;
#49 = PERSON_AND_ORGANIZATION_ROLE ( 'creator' ) ;
#50 = COORDINATED_UNIVERSAL_TIME_OFFSET ( 1, 0, .AHEAD. ) ;
#51 = APPROVAL_STATUS ( 'not_yet_approved' ) ;
#52 = VERTEX_POINT ( 'NONE', #153 ) ;
#53 = LOCAL_TIME ( 12, 23, 7.000000000000000000, #99 ) ;
#54 = DIRECTION ( 'NONE',  ( 1.000000000000000000, 0.000000000000000000, 0.000000000000000000 ) ) ;
#55 = ORIENTED_EDGE ( 'NONE', *, *, #197, .T. ) ;
#56 = CLOSED_SHELL ( 'NONE', ( #143, #227, #235, #166, #119, #134, #97, #58, #297 ) ) ;
#57 = CARTESIAN_POINT ( 'NONE',  ( 0.000000000000000000, 0.000000000000000000, 3.000000000000000000 ) ) ;
#58 = ADVANCED_FACE ( 'NONE', ( #193 ), #103, .T. ) ;
#59 = VERTEX_POINT ( 'NONE', #246 ) ;
#60 = ORIENTED_EDGE ( 'NONE', *, *, #176, .T. ) ;
#61 = CARTESIAN_POINT ( 'NONE',  ( 0.000000000000000000, 0.000000000000000000, 3.199999999999980638 ) ) ;
#62 = CARTESIAN_POINT ( 'NONE',  ( 0.000000000000000000, 0.000000000000000000, 0.000000000000000000 ) ) ;
#63 =( LENGTH_UNIT ( ) NAMED_UNIT ( * ) SI_UNIT ( .MILLI., .METRE. ) );
#64 = CARTESIAN_POINT ( 'NONE',  ( 0.000000000000000000, 0.000000000000000000, 3.000000000000000000 ) ) ;
#65 = VERTEX_POINT ( 'NONE', #132 ) ;
#66 = EDGE_LOOP ( 'NONE', ( #107, #115, #258, #183 ) ) ;
#67 = CC_DESIGN_APPROVAL ( #78, ( #82 ) ) ;
#68 = PERSON_AND_ORGANIZATION ( #111, #270 ) ;
#69 = APPROVAL_ROLE ( '' ) ;
#70 = COORDINATED_UNIVERSAL_TIME_OFFSET ( 1, 0, .AHEAD. ) ;
#71 = ORIENTED_EDGE ( 'NONE', *, *, #155, .T. ) ;
#72 = SHAPE_DEFINITION_REPRESENTATION ( #252, #128 ) ;
#73 = EDGE_LOOP ( 'NONE', ( #117, #294, #288, #275 ) ) ;
#74 = CIRCLE ( 'NONE', #160, 0.2000000000000000944 ) ;
#75 =( GEOMETRIC_REPRESENTATION_CONTEXT ( 3 ) GLOBAL_UNCERTAINTY_ASSIGNED_CONTEXT ( ( #173 ) ) GLOBAL_UNIT_ASSIGNED_CONTEXT ( ( #63, #87, #305 ) ) REPRESENTATION_CONTEXT ( 'NONE', 'WORKASPACE' ) );
#76 = VERTEX_POINT ( 'NONE', #174 ) ;
#77 = VERTEX_POINT ( 'NONE', #277 ) ;
#78 = APPROVAL ( #121, 'NEURÈENÝ' ) ;
#79 = AXIS2_PLACEMENT_3D ( 'NONE', #154, #271, #217 ) ;
#80 = CARTESIAN_POINT ( 'NONE',  ( 0.000000000000000000, 0.000000000000000000, 3.199999999999980638 ) ) ;
#81 = ORIENTED_EDGE ( 'NONE', *, *, #139, .T. ) ;
#82 = PRODUCT_DEFINITION_FORMATION_WITH_SPECIFIED_SOURCE ( 'LIBOVOLNÝ', '', #300, .NOT_KNOWN. ) ;
#83 = DIRECTION ( 'NONE',  ( -0.000000000000000000, -0.000000000000000000, -1.000000000000000000 ) ) ;
#84 = DIRECTION ( 'NONE',  ( 0.000000000000000000, 0.000000000000000000, 1.000000000000000000 ) ) ;
#85 = LINE ( 'NONE', #278, #220 ) ;
#86 = CIRCLE ( 'NONE', #201, 2.300000000000000266 ) ;
#87 =( NAMED_UNIT ( * ) PLANE_ANGLE_UNIT ( ) SI_UNIT ( $, .RADIAN. ) );
#88 = DIRECTION ( 'NONE',  ( 0.000000000000000000, 0.000000000000000000, 1.000000000000000000 ) ) ;
#89 = CIRCLE ( 'NONE', #238, 2.100000000000000089 ) ;
#90 = PERSON_AND_ORGANIZATION ( #111, #270 ) ;
#91 = TOROIDAL_SURFACE ( 'NONE', #269, 2.300000000000000266, 0.2000000000000000111 ) ;
#92 = APPROVAL_DATE_TIME ( #120, #195 ) ;
#93 = CALENDAR_DATE ( 2022, 7, 7 ) ;
#94 = AXIS2_PLACEMENT_3D ( 'NONE', #57, #156, #38 ) ;
#95 = PERSON_AND_ORGANIZATION_ROLE ( 'creator' ) ;
#96 = EDGE_LOOP ( 'NONE', ( #206, #21, #268, #5 ) ) ;
#97 = ADVANCED_FACE ( 'NONE', ( #12 ), #106, .T. ) ;
#98 = CIRCLE ( 'NONE', #189, 4.000000000000000000 ) ;
#99 = COORDINATED_UNIVERSAL_TIME_OFFSET ( 1, 0, .AHEAD. ) ;
#100 = VERTEX_POINT ( 'NONE', #216 ) ;
#101 = TOROIDAL_SURFACE ( 'NONE', #36, 2.300000000000000266, 0.2000000000000000111 ) ;
#102 = DIRECTION ( 'NONE',  ( 1.000000000000000000, 0.000000000000000000, -0.000000000000000000 ) ) ;
#103 = PLANE ( 'NONE',  #218 ) ;
#104 = VERTEX_POINT ( 'NONE', #242 ) ;
#105 = CIRCLE ( 'NONE', #169, 2.100000000000000089 ) ;
#106 = CYLINDRICAL_SURFACE ( 'NONE', #30, 2.100000000000000089 ) ;
#107 = ORIENTED_EDGE ( 'NONE', *, *, #125, .F. ) ;
#108 = EDGE_CURVE ( 'NONE', #52, #104, #74, .T. ) ;
#109 = CARTESIAN_POINT ( 'NONE',  ( 0.000000000000000000, 0.000000000000000000, 3.000000000000000000 ) ) ;
#110 = LINE ( 'NONE', #112, #14 ) ;
#111 = PERSON ( 'NEURÈENÝ', 'NEURÈENÝ', 'NEURÈENÝ', ('NEURÈENÝ'), ('NEURÈENÝ'), ('NEURÈENÝ') ) ;
#112 = CARTESIAN_POINT ( 'NONE',  ( -4.000000000000000000, 0.000000000000000000, 3.000000000000000000 ) ) ;
#113 = CIRCLE ( 'NONE', #287, 2.100000000000000089 ) ;
#114 = APPROVAL_PERSON_ORGANIZATION ( #90, #78, #211 ) ;
#115 = ORIENTED_EDGE ( 'NONE', *, *, #108, .T. ) ;
#116 = DIRECTION ( 'NONE',  ( 1.000000000000000000, 0.000000000000000000, 0.000000000000000000 ) ) ;
#117 = ORIENTED_EDGE ( 'NONE', *, *, #289, .F. ) ;
#118 = DIRECTION ( 'NONE',  ( 1.000000000000000000, 0.000000000000000000, 0.000000000000000000 ) ) ;
#119 = ADVANCED_FACE ( 'NONE', ( #13, #192 ), #244, .T. ) ;
#120 = DATE_AND_TIME ( #209, #164 ) ;
#121 = APPROVAL_STATUS ( 'not_yet_approved' ) ;
#122 = EDGE_LOOP ( 'NONE', ( #204, #55 ) ) ;
#123 = APPLICATION_PROTOCOL_DEFINITION ( 'international standard', 'config_control_design', 1994, #251 ) ;
#124 = ORIENTED_EDGE ( 'NONE', *, *, #152, .F. ) ;
#125 = EDGE_CURVE ( 'NONE', #52, #18, #89, .T. ) ;
#126 = ORIENTED_EDGE ( 'NONE', *, *, #264, .F. ) ;
#127 = CARTESIAN_POINT ( 'NONE',  ( 0.000000000000000000, 0.000000000000000000, 503.0000000000000000 ) ) ;
#128 = ADVANCED_BREP_SHAPE_REPRESENTATION ( '00b7', ( #237, #25 ), #75 ) ;
#129 = DIRECTION ( 'NONE',  ( 0.000000000000000000, 0.000000000000000000, 1.000000000000000000 ) ) ;
#130 = CC_DESIGN_APPROVAL ( #23, ( #215 ) ) ;
#131 = EDGE_LOOP ( 'NONE', ( #233, #212, #151, #29 ) ) ;
#132 = CARTESIAN_POINT ( 'NONE',  ( -4.000000000000000000, 0.000000000000000000, 0.000000000000000000 ) ) ;
#133 = DIRECTION ( 'NONE',  ( 0.000000000000000000, 0.000000000000000000, 1.000000000000000000 ) ) ;
#134 = ADVANCED_FACE ( 'NONE', ( #298 ), #39, .F. ) ;
#135 = CC_DESIGN_DATE_AND_TIME_ASSIGNMENT ( #234, #188, ( #215 ) ) ;
#136 = FACE_OUTER_BOUND ( 'NONE', #291, .T. ) ;
#137 = CARTESIAN_POINT ( 'NONE',  ( 0.000000000000000000, 0.000000000000000000, 3.000000000000000000 ) ) ;
#138 = DIRECTION ( 'NONE',  ( 0.000000000000000000, 0.000000000000000000, 1.000000000000000000 ) ) ;
#139 = EDGE_CURVE ( 'NONE', #175, #59, #105, .T. ) ;
#140 = ORIENTED_EDGE ( 'NONE', *, *, #27, .T. ) ;
#141 = PRODUCT_DEFINITION ( 'NEZNÁMÝ', '', #82, #272 ) ;
#142 = DIRECTION ( 'NONE',  ( 1.000000000000000000, 0.000000000000000000, 0.000000000000000000 ) ) ;
#143 = ADVANCED_FACE ( 'NONE', ( #8 ), #101, .F. ) ;
#144 = SECURITY_CLASSIFICATION_LEVEL ( 'unclassified' ) ;
#145 = CALENDAR_DATE ( 2022, 7, 7 ) ;
#146 = PERSON_AND_ORGANIZATION_ROLE ( 'design_owner' ) ;
#147 = CC_DESIGN_PERSON_AND_ORGANIZATION_ASSIGNMENT ( #306, #49, ( #82 ) ) ;
#148 = CALENDAR_DATE ( 2022, 7, 7 ) ;
#149 = CC_DESIGN_PERSON_AND_ORGANIZATION_ASSIGNMENT ( #236, #95, ( #141 ) ) ;
#150 = LOCAL_TIME ( 12, 23, 7.000000000000000000, #70 ) ;
#151 = ORIENTED_EDGE ( 'NONE', *, *, #42, .T. ) ;
#152 = EDGE_CURVE ( 'NONE', #100, #77, #182, .T. ) ;
#153 = CARTESIAN_POINT ( 'NONE',  ( -2.100000000000000089, 0.000000000000000000, 3.199999999999980638 ) ) ;
#154 = CARTESIAN_POINT ( 'NONE',  ( 2.300000000000000266, 0.000000000000000000, 3.199999999999980638 ) ) ;
#155 = EDGE_CURVE ( 'NONE', #104, #231, #86, .T. ) ;
#156 = DIRECTION ( 'NONE',  ( -0.000000000000000000, -0.000000000000000000, -1.000000000000000000 ) ) ;
#157 = CARTESIAN_POINT ( 'NONE',  ( 0.000000000000000000, 0.000000000000000000, 3.000000000000000000 ) ) ;
#158 = DIRECTION ( 'NONE',  ( 1.000000000000000000, 0.000000000000000000, 0.000000000000000000 ) ) ;
#159 = FACE_OUTER_BOUND ( 'NONE', #131, .T. ) ;
#160 = AXIS2_PLACEMENT_3D ( 'NONE', #178, #213, #11 ) ;
#161 = CARTESIAN_POINT ( 'NONE',  ( 0.000000000000000000, 0.000000000000000000, 503.0000000000000000 ) ) ;
#162 = EDGE_LOOP ( 'NONE', ( #48, #81 ) ) ;
#163 = CARTESIAN_POINT ( 'NONE',  ( 0.000000000000000000, 0.000000000000000000, 3.000000000000000000 ) ) ;
#164 = LOCAL_TIME ( 12, 23, 7.000000000000000000, #284 ) ;
#165 = PERSON_AND_ORGANIZATION ( #111, #270 ) ;
#166 = ADVANCED_FACE ( 'NONE', ( #136 ), #223, .T. ) ;
#167 = CALENDAR_DATE ( 2022, 7, 7 ) ;
#168 = DIRECTION ( 'NONE',  ( 0.000000000000000000, 0.000000000000000000, 1.000000000000000000 ) ) ;
#169 = AXIS2_PLACEMENT_3D ( 'NONE', #219, #129, #54 ) ;
#170 = DIRECTION ( 'NONE',  ( -1.000000000000000000, 0.000000000000000000, 0.000000000000000000 ) ) ;
#171 = CIRCLE ( 'NONE', #33, 2.100000000000000089 ) ;
#172 = LOCAL_TIME ( 12, 23, 7.000000000000000000, #259 ) ;
#173 = UNCERTAINTY_MEASURE_WITH_UNIT (LENGTH_MEASURE( 1.000000000000000082E-05 ), #63, 'distance_accuracy_value', 'NONE');
#174 = CARTESIAN_POINT ( 'NONE',  ( -4.000000000000000000, 0.000000000000000000, 3.000000000000000000 ) ) ;
#175 = VERTEX_POINT ( 'NONE', #224 ) ;
#176 = EDGE_CURVE ( 'NONE', #18, #52, #171, .T. ) ;
#177 = CARTESIAN_POINT ( 'NONE',  ( 0.000000000000000000, 0.000000000000000000, 0.000000000000000000 ) ) ;
#178 = CARTESIAN_POINT ( 'NONE',  ( -2.300000000000000266, 2.816687638038912549E-16, 3.199999999999980638 ) ) ;
#179 = DIRECTION ( 'NONE',  ( -0.000000000000000000, -0.000000000000000000, -1.000000000000000000 ) ) ;
#180 = DIRECTION ( 'NONE',  ( -1.000000000000000000, 0.000000000000000000, 0.000000000000000000 ) ) ;
#181 = DIRECTION ( 'NONE',  ( 1.000000000000000000, 0.000000000000000000, 0.000000000000000000 ) ) ;
#182 = LINE ( 'NONE', #229, #187 ) ;
#183 = ORIENTED_EDGE ( 'NONE', *, *, #42, .F. ) ;
#184 = CC_DESIGN_PERSON_AND_ORGANIZATION_ASSIGNMENT ( #210, #26, ( #82 ) ) ;
#185 = MECHANICAL_CONTEXT ( 'NONE', #251, 'mechanical' ) ;
#186 = AXIS2_PLACEMENT_3D ( 'NONE', #109, #88, #301 ) ;
#187 = VECTOR ( 'NONE', #281, 1000.000000000000000 ) ;
#188 = DATE_TIME_ROLE ( 'classification_date' ) ;
#189 = AXIS2_PLACEMENT_3D ( 'NONE', #62, #303, #118 ) ;
#190 = CC_DESIGN_PERSON_AND_ORGANIZATION_ASSIGNMENT ( #165, #146, ( #300 ) ) ;
#191 = DIRECTION ( 'NONE',  ( -0.000000000000000000, -0.000000000000000000, -1.000000000000000000 ) ) ;
#192 = FACE_OUTER_BOUND ( 'NONE', #122, .T. ) ;
#193 = FACE_OUTER_BOUND ( 'NONE', #162, .T. ) ;
#194 = DIRECTION ( 'NONE',  ( -0.000000000000000000, -0.000000000000000000, -1.000000000000000000 ) ) ;
#195 = APPROVAL ( #51, 'NEURÈENÝ' ) ;
#196 = LINE ( 'NONE', #299, #295 ) ;
#197 = EDGE_CURVE ( 'NONE', #100, #76, #41, .T. ) ;
#198 = DIRECTION ( 'NONE',  ( -0.000000000000000000, -0.000000000000000000, -1.000000000000000000 ) ) ;
#199 = EDGE_CURVE ( 'NONE', #77, #65, #263, .T. ) ;
#200 = CARTESIAN_POINT ( 'NONE',  ( 0.000000000000000000, 0.000000000000000000, 3.199999999999980638 ) ) ;
#201 = AXIS2_PLACEMENT_3D ( 'NONE', #137, #198, #282 ) ;
#202 = APPROVAL_PERSON_ORGANIZATION ( #68, #195, #69 ) ;
#203 = EDGE_CURVE ( 'NONE', #59, #175, #113, .T. ) ;
#204 = ORIENTED_EDGE ( 'NONE', *, *, #264, .T. ) ;
#205 = CARTESIAN_POINT ( 'NONE',  ( 2.300000000000000266, 0.000000000000000000, 2.999999999999990674 ) ) ;
#206 = ORIENTED_EDGE ( 'NONE', *, *, #197, .F. ) ;
#207 = CARTESIAN_POINT ( 'NONE',  ( 0.000000000000000000, 0.000000000000000000, 3.199999999999980638 ) ) ;
#208 = APPROVAL_DATE_TIME ( #261, #78 ) ;
#209 = CALENDAR_DATE ( 2022, 7, 7 ) ;
#210 = PERSON_AND_ORGANIZATION ( #111, #270 ) ;
#211 = APPROVAL_ROLE ( '' ) ;
#212 = ORIENTED_EDGE ( 'NONE', *, *, #176, .F. ) ;
#213 = DIRECTION ( 'NONE',  ( 1.224646799147353207E-16, 1.000000000000000000, -0.000000000000000000 ) ) ;
#214 = ORIENTED_EDGE ( 'NONE', *, *, #260, .F. ) ;
#215 = SECURITY_CLASSIFICATION ( '', '', #144 ) ;
#216 = CARTESIAN_POINT ( 'NONE',  ( 4.000000000000000000, 4.898587196589412829E-16, 3.000000000000000000 ) ) ;
#217 = DIRECTION ( 'NONE',  ( 0.000000000000000000, 0.000000000000000000, -1.000000000000000000 ) ) ;
#218 = AXIS2_PLACEMENT_3D ( 'NONE', #127, #241, #102 ) ;
#219 = CARTESIAN_POINT ( 'NONE',  ( 0.000000000000000000, 0.000000000000000000, 503.0000000000000000 ) ) ;
#220 = VECTOR ( 'NONE', #15, 1000.000000000000000 ) ;
#221 = CC_DESIGN_APPROVAL ( #195, ( #141 ) ) ;
#222 = CC_DESIGN_SECURITY_CLASSIFICATION ( #215, ( #82 ) ) ;
#223 = CYLINDRICAL_SURFACE ( 'NONE', #293, 4.000000000000000000 ) ;
#224 = CARTESIAN_POINT ( 'NONE',  ( 2.100000000000000089, 2.571758278209441957E-16, 503.0000000000000000 ) ) ;
#225 = CIRCLE ( 'NONE', #94, 2.300000000000000266 ) ;
#226 = DIRECTION ( 'NONE',  ( 0.000000000000000000, 0.000000000000000000, 1.000000000000000000 ) ) ;
#227 = ADVANCED_FACE ( 'NONE', ( #44 ), #280, .T. ) ;
#228 = ORIENTED_EDGE ( 'NONE', *, *, #199, .F. ) ;
#229 = CARTESIAN_POINT ( 'NONE',  ( 4.000000000000000000, 4.898587196589412829E-16, 3.000000000000000000 ) ) ;
#230 = CC_DESIGN_PERSON_AND_ORGANIZATION_ASSIGNMENT ( #239, #2, ( #215 ) ) ;
#231 = VERTEX_POINT ( 'NONE', #205 ) ;
#232 = CARTESIAN_POINT ( 'NONE',  ( 0.000000000000000000, 0.000000000000000000, 3.000000000000000000 ) ) ;
#233 = ORIENTED_EDGE ( 'NONE', *, *, #108, .F. ) ;
#234 = DATE_AND_TIME ( #145, #172 ) ;
#235 = ADVANCED_FACE ( 'NONE', ( #16 ), #254, .T. ) ;
#236 = PERSON_AND_ORGANIZATION ( #111, #270 ) ;
#237 = MANIFOLD_SOLID_BREP ( 'Zaoblit1', #56 ) ;
#238 = AXIS2_PLACEMENT_3D ( 'NONE', #80, #35, #34 ) ;
#239 = PERSON_AND_ORGANIZATION ( #111, #270 ) ;
#240 = AXIS2_PLACEMENT_3D ( 'NONE', #22, #83, #180 ) ;
#241 = DIRECTION ( 'NONE',  ( 0.000000000000000000, 0.000000000000000000, 1.000000000000000000 ) ) ;
#242 = CARTESIAN_POINT ( 'NONE',  ( -2.300000000000000266, 2.816687638038912549E-16, 2.999999999999990674 ) ) ;
#243 = APPLICATION_CONTEXT ( 'configuration controlled 3d designs of mechanical parts and assemblies' ) ;
#244 = PLANE ( 'NONE',  #266 ) ;
#245 = AXIS2_PLACEMENT_3D ( 'NONE', #249, #40, #20 ) ;
#246 = CARTESIAN_POINT ( 'NONE',  ( -2.100000000000000089, 0.000000000000000000, 503.0000000000000000 ) ) ;
#247 = DIRECTION ( 'NONE',  ( 0.000000000000000000, 0.000000000000000000, 1.000000000000000000 ) ) ;
#248 = AXIS2_PLACEMENT_3D ( 'NONE', #177, #133, #9 ) ;
#249 = CARTESIAN_POINT ( 'NONE',  ( 0.000000000000000000, 0.000000000000000000, 0.000000000000000000 ) ) ;
#250 = PRODUCT_RELATED_PRODUCT_CATEGORY ( 'detail', '', ( #300 ) ) ;
#251 = APPLICATION_CONTEXT ( 'configuration controlled 3d designs of mechanical parts and assemblies' ) ;
#252 = PRODUCT_DEFINITION_SHAPE ( 'NONE', 'NONE',  #141 ) ;
#253 = DIRECTION ( 'NONE',  ( 0.000000000000000000, 0.000000000000000000, 1.000000000000000000 ) ) ;
#254 = CYLINDRICAL_SURFACE ( 'NONE', #19, 4.000000000000000000 ) ;
#255 = DIRECTION ( 'NONE',  ( -1.000000000000000000, 0.000000000000000000, 0.000000000000000000 ) ) ;
#256 = ORIENTED_EDGE ( 'NONE', *, *, #285, .T. ) ;
#257 = DIRECTION ( 'NONE',  ( -0.000000000000000000, -0.000000000000000000, -1.000000000000000000 ) ) ;
#258 = ORIENTED_EDGE ( 'NONE', *, *, #27, .F. ) ;
#259 = COORDINATED_UNIVERSAL_TIME_OFFSET ( 1, 0, .AHEAD. ) ;
#260 = EDGE_CURVE ( 'NONE', #65, #77, #98, .T. ) ;
#261 = DATE_AND_TIME ( #167, #302 ) ;
#262 = DIRECTION ( 'NONE',  ( 1.000000000000000000, 0.000000000000000000, 0.000000000000000000 ) ) ;
#263 = CIRCLE ( 'NONE', #245, 4.000000000000000000 ) ;
#264 = EDGE_CURVE ( 'NONE', #76, #100, #276, .T. ) ;
#265 = APPROVAL_DATE_TIME ( #267, #23 ) ;
#266 = AXIS2_PLACEMENT_3D ( 'NONE', #157, #247, #37 ) ;
#267 = DATE_AND_TIME ( #93, #150 ) ;
#268 = ORIENTED_EDGE ( 'NONE', *, *, #199, .T. ) ;
#269 = AXIS2_PLACEMENT_3D ( 'NONE', #61, #84, #43 ) ;
#270 = ORGANIZATION ( 'NEURÈENÝ', 'NEURÈENÝ', '' ) ;
#271 = DIRECTION ( 'NONE',  ( 0.000000000000000000, -1.000000000000000000, 0.000000000000000000 ) ) ;
#272 = DESIGN_CONTEXT ( 'detailed design', #243, 'design' ) ;
#273 = CARTESIAN_POINT ( 'NONE',  ( 2.100000000000000089, 2.571758278209441957E-16, 3.199999999999980638 ) ) ;
#274 = CC_DESIGN_DATE_AND_TIME_ASSIGNMENT ( #28, #24, ( #141 ) ) ;
#275 = ORIENTED_EDGE ( 'NONE', *, *, #125, .T. ) ;
#276 = CIRCLE ( 'NONE', #186, 4.000000000000000000 ) ;
#277 = CARTESIAN_POINT ( 'NONE',  ( 4.000000000000000000, 4.898587196589412829E-16, 0.000000000000000000 ) ) ;
#278 = CARTESIAN_POINT ( 'NONE',  ( 2.100000000000000089, 2.571758278209441957E-16, 503.0000000000000000 ) ) ;
#279 = DIRECTION ( 'NONE',  ( -1.000000000000000000, 0.000000000000000000, 0.000000000000000000 ) ) ;
#280 = CYLINDRICAL_SURFACE ( 'NONE', #240, 2.100000000000000089 ) ;
#281 = DIRECTION ( 'NONE',  ( -0.000000000000000000, -0.000000000000000000, -1.000000000000000000 ) ) ;
#282 = DIRECTION ( 'NONE',  ( 1.000000000000000000, 0.000000000000000000, 0.000000000000000000 ) ) ;
#283 = ORIENTED_EDGE ( 'NONE', *, *, #7, .F. ) ;
#284 = COORDINATED_UNIVERSAL_TIME_OFFSET ( 1, 0, .AHEAD. ) ;
#285 = EDGE_CURVE ( 'NONE', #76, #65, #110, .T. ) ;
#286 = PERSON_AND_ORGANIZATION ( #111, #270 ) ;
#287 = AXIS2_PLACEMENT_3D ( 'NONE', #161, #226, #116 ) ;
#288 = ORIENTED_EDGE ( 'NONE', *, *, #7, .T. ) ;
#289 = EDGE_CURVE ( 'NONE', #175, #18, #85, .T. ) ;
#290 = APPROVAL_STATUS ( 'not_yet_approved' ) ;
#291 = EDGE_LOOP ( 'NONE', ( #124, #126, #256, #32 ) ) ;
#292 = ORIENTED_EDGE ( 'NONE', *, *, #139, .F. ) ;
#293 = AXIS2_PLACEMENT_3D ( 'NONE', #163, #257, #279 ) ;
#294 = ORIENTED_EDGE ( 'NONE', *, *, #203, .F. ) ;
#295 = VECTOR ( 'NONE', #191, 1000.000000000000000 ) ;
#296 = CARTESIAN_POINT ( 'NONE',  ( 0.000000000000000000, 0.000000000000000000, 503.0000000000000000 ) ) ;
#297 = ADVANCED_FACE ( 'NONE', ( #159 ), #91, .F. ) ;
#298 = FACE_OUTER_BOUND ( 'NONE', #304, .T. ) ;
#299 = CARTESIAN_POINT ( 'NONE',  ( -2.100000000000000089, 0.000000000000000000, 503.0000000000000000 ) ) ;
#300 = PRODUCT ( '00b7', '00b7', '', ( #185 ) ) ;
#301 = DIRECTION ( 'NONE',  ( 1.000000000000000000, 0.000000000000000000, 0.000000000000000000 ) ) ;
#302 = LOCAL_TIME ( 12, 23, 7.000000000000000000, #50 ) ;
#303 = DIRECTION ( 'NONE',  ( 0.000000000000000000, 0.000000000000000000, 1.000000000000000000 ) ) ;
#304 = EDGE_LOOP ( 'NONE', ( #214, #228 ) ) ;
#305 =( NAMED_UNIT ( * ) SI_UNIT ( $, .STERADIAN. ) SOLID_ANGLE_UNIT ( ) );
#306 = PERSON_AND_ORGANIZATION ( #111, #270 ) ;
#307 = APPLICATION_PROTOCOL_DEFINITION ( 'international standard', 'config_control_design', 1994, #243 ) ;
ENDSEC;
END-ISO-10303-21;
