ISO-10303-21;
HEADER;
FILE_DESCRIPTION (( 'STEP AP203' ),
    '1' );
FILE_NAME ('a077.STEP',
    '2022-07-07T10:10:05',
    ( '' ),
    ( '' ),
    'SwSTEP 2.0',
    'SolidWorks 2019',
    '' );
FILE_SCHEMA (( 'CONFIG_CONTROL_DESIGN' ));
ENDSEC;

DATA;
#1 = APPROVAL_STATUS ( 'not_yet_approved' ) ;
#2 = ORIENTED_EDGE ( 'NONE', *, *, #21, .T. ) ;
#3 = CC_DESIGN_APPROVAL ( #281, ( #305 ) ) ;
#4 = DIRECTION ( 'NONE',  ( 0.000000000000000000, 0.000000000000000000, 1.000000000000000000 ) ) ;
#5 = PERSON_AND_ORGANIZATION ( #235, #15 ) ;
#6 = EDGE_CURVE ( 'NONE', #53, #290, #210, .T. ) ;
#7 = UNCERTAINTY_MEASURE_WITH_UNIT (LENGTH_MEASURE( 1.000000000000000082E-05 ), #194, 'distance_accuracy_value', 'NONE');
#8 = DIRECTION ( 'NONE',  ( 0.000000000000000000, 0.000000000000000000, 1.000000000000000000 ) ) ;
#9 = CIRCLE ( 'NONE', #25, 6.000000000000000888 ) ;
#10 = VERTEX_POINT ( 'NONE', #199 ) ;
#11 = AXIS2_PLACEMENT_3D ( 'NONE', #254, #13, #251 ) ;
#12 = AXIS2_PLACEMENT_3D ( 'NONE', #22, #299, #87 ) ;
#13 = DIRECTION ( 'NONE',  ( 0.000000000000000000, 0.000000000000000000, 1.000000000000000000 ) ) ;
#14 = CARTESIAN_POINT ( 'NONE',  ( -3.299999999999999822, 4.041334437186265510E-16, 5.199999999999982414 ) ) ;
#15 = ORGANIZATION ( 'NEURÈENÝ', 'NEURÈENÝ', '' ) ;
#16 = ADVANCED_FACE ( 'NONE', ( #161 ), #296, .T. ) ;
#17 = ORIENTED_EDGE ( 'NONE', *, *, #248, .T. ) ;
#18 = DIRECTION ( 'NONE',  ( -0.000000000000000000, -0.000000000000000000, -1.000000000000000000 ) ) ;
#19 = DIRECTION ( 'NONE',  ( -0.000000000000000000, -0.000000000000000000, -1.000000000000000000 ) ) ;
#20 = DIRECTION ( 'NONE',  ( 1.000000000000000000, 0.000000000000000000, 0.000000000000000000 ) ) ;
#21 = EDGE_CURVE ( 'NONE', #222, #290, #109, .T. ) ;
#22 = CARTESIAN_POINT ( 'NONE',  ( 0.000000000000000000, 0.000000000000000000, 5.000000000000000000 ) ) ;
#23 = DATE_AND_TIME ( #158, #273 ) ;
#24 = EDGE_CURVE ( 'NONE', #275, #222, #115, .T. ) ;
#25 = AXIS2_PLACEMENT_3D ( 'NONE', #44, #148, #20 ) ;
#26 = APPROVAL_STATUS ( 'not_yet_approved' ) ;
#27 = CARTESIAN_POINT ( 'NONE',  ( 0.000000000000000000, 0.000000000000000000, 0.000000000000000000 ) ) ;
#28 = ORIENTED_EDGE ( 'NONE', *, *, #6, .T. ) ;
#29 = APPROVAL_ROLE ( '' ) ;
#30 = DATE_TIME_ROLE ( 'creation_date' ) ;
#31 = CLOSED_SHELL ( 'NONE', ( #33, #204, #86, #302, #131, #119, #16, #285, #234 ) ) ;
#32 = ORIENTED_EDGE ( 'NONE', *, *, #203, .F. ) ;
#33 = ADVANCED_FACE ( 'NONE', ( #137 ), #190, .F. ) ;
#34 = ADVANCED_BREP_SHAPE_REPRESENTATION ( 'a077', ( #36, #143 ), #124 ) ;
#35 = ORIENTED_EDGE ( 'NONE', *, *, #37, .T. ) ;
#36 = MANIFOLD_SOLID_BREP ( 'Zaoblit1', #31 ) ;
#37 = EDGE_CURVE ( 'NONE', #132, #101, #225, .T. ) ;
#38 = DIRECTION ( 'NONE',  ( 0.000000000000000000, 0.000000000000000000, 1.000000000000000000 ) ) ;
#39 = ORIENTED_EDGE ( 'NONE', *, *, #147, .T. ) ;
#40 = AXIS2_PLACEMENT_3D ( 'NONE', #46, #67, #42 ) ;
#41 = CARTESIAN_POINT ( 'NONE',  ( -6.000000000000000888, 0.000000000000000000, 0.000000000000000000 ) ) ;
#42 = DIRECTION ( 'NONE',  ( 1.000000000000000000, 0.000000000000000000, 0.000000000000000000 ) ) ;
#43 = DIRECTION ( 'NONE',  ( 1.000000000000000000, 0.000000000000000000, 0.000000000000000000 ) ) ;
#44 = CARTESIAN_POINT ( 'NONE',  ( 0.000000000000000000, 0.000000000000000000, 0.000000000000000000 ) ) ;
#45 = EDGE_CURVE ( 'NONE', #132, #275, #112, .T. ) ;
#46 = CARTESIAN_POINT ( 'NONE',  ( 0.000000000000000000, 0.000000000000000000, 1004.999999999999886 ) ) ;
#47 = CC_DESIGN_PERSON_AND_ORGANIZATION_ASSIGNMENT ( #125, #94, ( #283 ) ) ;
#48 = ORIENTED_EDGE ( 'NONE', *, *, #263, .F. ) ;
#49 = EDGE_LOOP ( 'NONE', ( #28, #230 ) ) ;
#50 = CC_DESIGN_DATE_AND_TIME_ASSIGNMENT ( #126, #55, ( #305 ) ) ;
#51 = AXIS2_PLACEMENT_3D ( 'NONE', #81, #8, #226 ) ;
#52 = AXIS2_PLACEMENT_3D ( 'NONE', #164, #181, #108 ) ;
#53 = VERTEX_POINT ( 'NONE', #182 ) ;
#54 = CIRCLE ( 'NONE', #113, 3.100000000000000089 ) ;
#55 = DATE_TIME_ROLE ( 'classification_date' ) ;
#56 = ORIENTED_EDGE ( 'NONE', *, *, #139, .T. ) ;
#57 = DIRECTION ( 'NONE',  ( -0.000000000000000000, -0.000000000000000000, -1.000000000000000000 ) ) ;
#58 = CARTESIAN_POINT ( 'NONE',  ( 0.000000000000000000, 0.000000000000000000, 1004.999999999999886 ) ) ;
#59 = EDGE_LOOP ( 'NONE', ( #157, #2, #133, #82 ) ) ;
#60 = CARTESIAN_POINT ( 'NONE',  ( 0.000000000000000000, 0.000000000000000000, 0.000000000000000000 ) ) ;
#61 = FACE_OUTER_BOUND ( 'NONE', #298, .T. ) ;
#62 = PRODUCT_DEFINITION_SHAPE ( 'NONE', 'NONE',  #65 ) ;
#63 = FACE_OUTER_BOUND ( 'NONE', #154, .T. ) ;
#64 = TOROIDAL_SURFACE ( 'NONE', #92, 3.299999999999999822, 0.2000000000000000111 ) ;
#65 = PRODUCT_DEFINITION ( 'NEZNÁMÝ', '', #283, #240 ) ;
#66 = LOCAL_TIME ( 12, 10, 5.000000000000000000, #288 ) ;
#67 = DIRECTION ( 'NONE',  ( 0.000000000000000000, 0.000000000000000000, 1.000000000000000000 ) ) ;
#68 = DIRECTION ( 'NONE',  ( 0.000000000000000000, 0.000000000000000000, 1.000000000000000000 ) ) ;
#69 = DIRECTION ( 'NONE',  ( 0.000000000000000000, 0.000000000000000000, -1.000000000000000000 ) ) ;
#70 = DIRECTION ( 'NONE',  ( 0.000000000000000000, 0.000000000000000000, 1.000000000000000000 ) ) ;
#71 = AXIS2_PLACEMENT_3D ( 'NONE', #294, #57, #223 ) ;
#72 = CALENDAR_DATE ( 2022, 7, 7 ) ;
#73 = ORIENTED_EDGE ( 'NONE', *, *, #274, .T. ) ;
#74 = CALENDAR_DATE ( 2022, 7, 7 ) ;
#75 = ORIENTED_EDGE ( 'NONE', *, *, #21, .F. ) ;
#76 = DIRECTION ( 'NONE',  ( 1.000000000000000000, 0.000000000000000000, 0.000000000000000000 ) ) ;
#77 = COORDINATED_UNIVERSAL_TIME_OFFSET ( 1, 0, .AHEAD. ) ;
#78 = CC_DESIGN_DATE_AND_TIME_ASSIGNMENT ( #249, #30, ( #65 ) ) ;
#79 = AXIS2_PLACEMENT_3D ( 'NONE', #301, #84, #43 ) ;
#80 = ORIENTED_EDGE ( 'NONE', *, *, #203, .T. ) ;
#81 = CARTESIAN_POINT ( 'NONE',  ( 0.000000000000000000, 0.000000000000000000, 5.199999999999982414 ) ) ;
#82 = ORIENTED_EDGE ( 'NONE', *, *, #169, .F. ) ;
#83 = EDGE_LOOP ( 'NONE', ( #75, #267, #250, #136 ) ) ;
#84 = DIRECTION ( 'NONE',  ( -0.000000000000000000, -0.000000000000000000, -1.000000000000000000 ) ) ;
#85 = LINE ( 'NONE', #284, #253 ) ;
#86 = ADVANCED_FACE ( 'NONE', ( #295 ), #277, .T. ) ;
#87 = DIRECTION ( 'NONE',  ( 1.000000000000000000, 0.000000000000000000, -0.000000000000000000 ) ) ;
#88 = DIRECTION ( 'NONE',  ( 1.000000000000000000, 0.000000000000000000, 0.000000000000000000 ) ) ;
#89 = DIRECTION ( 'NONE',  ( 1.000000000000000000, 0.000000000000000000, 0.000000000000000000 ) ) ;
#90 = AXIS2_PLACEMENT_3D ( 'NONE', #186, #68, #88 ) ;
#91 = LOCAL_TIME ( 12, 10, 5.000000000000000000, #289 ) ;
#92 = AXIS2_PLACEMENT_3D ( 'NONE', #216, #170, #260 ) ;
#93 = APPLICATION_PROTOCOL_DEFINITION ( 'international standard', 'config_control_design', 1994, #117 ) ;
#94 = PERSON_AND_ORGANIZATION_ROLE ( 'design_supplier' ) ;
#95 = APPROVAL ( #269, 'NEURÈENÝ' ) ;
#96 = APPLICATION_CONTEXT ( 'configuration controlled 3d designs of mechanical parts and assemblies' ) ;
#97 = CALENDAR_DATE ( 2022, 7, 7 ) ;
#98 = ORIENTED_EDGE ( 'NONE', *, *, #214, .T. ) ;
#99 = PERSON_AND_ORGANIZATION ( #235, #15 ) ;
#100 = DATE_AND_TIME ( #72, #66 ) ;
#101 = VERTEX_POINT ( 'NONE', #279 ) ;
#102 = APPROVAL_DATE_TIME ( #23, #281 ) ;
#103 = AXIS2_PLACEMENT_3D ( 'NONE', #122, #215, #69 ) ;
#104 = APPROVAL_PERSON_ORGANIZATION ( #220, #281, #29 ) ;
#105 = CARTESIAN_POINT ( 'NONE',  ( 3.100000000000000089, 3.796405077356794918E-16, 1004.999999999999886 ) ) ;
#106 = LOCAL_TIME ( 12, 10, 5.000000000000000000, #156 ) ;
#107 = APPROVAL ( #26, 'NEURÈENÝ' ) ;
#108 = DIRECTION ( 'NONE',  ( 1.000000000000000000, 0.000000000000000000, 0.000000000000000000 ) ) ;
#109 = CIRCLE ( 'NONE', #138, 0.2000000000000000944 ) ;
#110 = AXIS2_PLACEMENT_3D ( 'NONE', #162, #183, #276 ) ;
#111 = DIRECTION ( 'NONE',  ( -0.000000000000000000, -0.000000000000000000, -1.000000000000000000 ) ) ;
#112 = LINE ( 'NONE', #105, #196 ) ;
#113 = AXIS2_PLACEMENT_3D ( 'NONE', #144, #304, #89 ) ;
#114 = CARTESIAN_POINT ( 'NONE',  ( -3.299999999999999822, 4.041334437186265510E-16, 4.999999999999991118 ) ) ;
#115 = CIRCLE ( 'NONE', #11, 3.100000000000000089 ) ;
#116 = DIRECTION ( 'NONE',  ( -1.000000000000000000, 0.000000000000000000, 0.000000000000000000 ) ) ;
#117 = APPLICATION_CONTEXT ( 'configuration controlled 3d designs of mechanical parts and assemblies' ) ;
#118 = CARTESIAN_POINT ( 'NONE',  ( -6.000000000000000888, 0.000000000000000000, 5.000000000000000000 ) ) ;
#119 = ADVANCED_FACE ( 'NONE', ( #252 ), #185, .F. ) ;
#120 = CARTESIAN_POINT ( 'NONE',  ( -6.000000000000000888, 0.000000000000000000, 5.000000000000000000 ) ) ;
#121 = CIRCLE ( 'NONE', #40, 3.100000000000000089 ) ;
#122 = CARTESIAN_POINT ( 'NONE',  ( 3.299999999999999822, 0.000000000000000000, 5.199999999999982414 ) ) ;
#123 = MECHANICAL_CONTEXT ( 'NONE', #96, 'mechanical' ) ;
#124 =( GEOMETRIC_REPRESENTATION_CONTEXT ( 3 ) GLOBAL_UNCERTAINTY_ASSIGNED_CONTEXT ( ( #7 ) ) GLOBAL_UNIT_ASSIGNED_CONTEXT ( ( #194, #291, #128 ) ) REPRESENTATION_CONTEXT ( 'NONE', 'WORKASPACE' ) );
#125 = PERSON_AND_ORGANIZATION ( #235, #15 ) ;
#126 = DATE_AND_TIME ( #74, #91 ) ;
#127 = EDGE_LOOP ( 'NONE', ( #297, #48 ) ) ;
#128 =( NAMED_UNIT ( * ) SI_UNIT ( $, .STERADIAN. ) SOLID_ANGLE_UNIT ( ) );
#129 = CALENDAR_DATE ( 2022, 7, 7 ) ;
#130 = ORIENTED_EDGE ( 'NONE', *, *, #134, .T. ) ;
#131 = ADVANCED_FACE ( 'NONE', ( #140, #61 ), #209, .T. ) ;
#132 = VERTEX_POINT ( 'NONE', #300 ) ;
#133 = ORIENTED_EDGE ( 'NONE', *, *, #6, .F. ) ;
#134 = EDGE_CURVE ( 'NONE', #101, #222, #85, .T. ) ;
#135 = CIRCLE ( 'NONE', #103, 0.1999999999999996503 ) ;
#136 = ORIENTED_EDGE ( 'NONE', *, *, #153, .F. ) ;
#137 = FACE_OUTER_BOUND ( 'NONE', #59, .T. ) ;
#138 = AXIS2_PLACEMENT_3D ( 'NONE', #14, #255, #227 ) ;
#139 = EDGE_CURVE ( 'NONE', #101, #132, #121, .T. ) ;
#140 = FACE_BOUND ( 'NONE', #49, .T. ) ;
#141 = CC_DESIGN_APPROVAL ( #107, ( #283 ) ) ;
#142 = VERTEX_POINT ( 'NONE', #118 ) ;
#143 = AXIS2_PLACEMENT_3D ( 'NONE', #27, #4, #76 ) ;
#144 = CARTESIAN_POINT ( 'NONE',  ( 0.000000000000000000, 0.000000000000000000, 5.199999999999982414 ) ) ;
#145 = DIRECTION ( 'NONE',  ( 1.000000000000000000, 0.000000000000000000, 0.000000000000000000 ) ) ;
#146 = DIRECTION ( 'NONE',  ( 0.000000000000000000, 0.000000000000000000, 1.000000000000000000 ) ) ;
#147 = EDGE_CURVE ( 'NONE', #142, #195, #213, .T. ) ;
#148 = DIRECTION ( 'NONE',  ( 0.000000000000000000, 0.000000000000000000, 1.000000000000000000 ) ) ;
#149 = PLANE ( 'NONE',  #257 ) ;
#150 = VERTEX_POINT ( 'NONE', #237 ) ;
#151 = AXIS2_PLACEMENT_3D ( 'NONE', #286, #146, #236 ) ;
#152 = APPLICATION_PROTOCOL_DEFINITION ( 'international standard', 'config_control_design', 1994, #96 ) ;
#153 = EDGE_CURVE ( 'NONE', #290, #53, #218, .T. ) ;
#154 = EDGE_LOOP ( 'NONE', ( #176, #208, #39, #206 ) ) ;
#155 = PERSON_AND_ORGANIZATION_ROLE ( 'creator' ) ;
#156 = COORDINATED_UNIVERSAL_TIME_OFFSET ( 1, 0, .AHEAD. ) ;
#157 = ORIENTED_EDGE ( 'NONE', *, *, #274, .F. ) ;
#158 = CALENDAR_DATE ( 2022, 7, 7 ) ;
#159 = DIRECTION ( 'NONE',  ( -1.000000000000000000, 0.000000000000000000, 0.000000000000000000 ) ) ;
#160 = CC_DESIGN_PERSON_AND_ORGANIZATION_ASSIGNMENT ( #99, #241, ( #268 ) ) ;
#161 = FACE_OUTER_BOUND ( 'NONE', #224, .T. ) ;
#162 = CARTESIAN_POINT ( 'NONE',  ( 0.000000000000000000, 0.000000000000000000, 5.000000000000000000 ) ) ;
#163 = EDGE_LOOP ( 'NONE', ( #32, #98, #198, #264 ) ) ;
#164 = CARTESIAN_POINT ( 'NONE',  ( 0.000000000000000000, 0.000000000000000000, 1004.999999999999886 ) ) ;
#165 = CIRCLE ( 'NONE', #151, 6.000000000000000888 ) ;
#166 = DIRECTION ( 'NONE',  ( 1.000000000000000000, 0.000000000000000000, -0.000000000000000000 ) ) ;
#167 = AXIS2_PLACEMENT_3D ( 'NONE', #259, #70, #145 ) ;
#168 = DIRECTION ( 'NONE',  ( -0.000000000000000000, -0.000000000000000000, -1.000000000000000000 ) ) ;
#169 = EDGE_CURVE ( 'NONE', #275, #53, #135, .T. ) ;
#170 = DIRECTION ( 'NONE',  ( 0.000000000000000000, 0.000000000000000000, 1.000000000000000000 ) ) ;
#171 = FACE_OUTER_BOUND ( 'NONE', #83, .T. ) ;
#172 = DIRECTION ( 'NONE',  ( -1.000000000000000000, 0.000000000000000000, 0.000000000000000000 ) ) ;
#173 = APPROVAL_DATE_TIME ( #100, #95 ) ;
#174 = ORIENTED_EDGE ( 'NONE', *, *, #134, .F. ) ;
#175 = COORDINATED_UNIVERSAL_TIME_OFFSET ( 1, 0, .AHEAD. ) ;
#176 = ORIENTED_EDGE ( 'NONE', *, *, #214, .F. ) ;
#177 = CIRCLE ( 'NONE', #167, 6.000000000000000888 ) ;
#178 = PERSON_AND_ORGANIZATION ( #235, #15 ) ;
#179 = ORIENTED_EDGE ( 'NONE', *, *, #24, .T. ) ;
#180 = EDGE_LOOP ( 'NONE', ( #56, #35 ) ) ;
#181 = DIRECTION ( 'NONE',  ( 0.000000000000000000, 0.000000000000000000, 1.000000000000000000 ) ) ;
#182 = CARTESIAN_POINT ( 'NONE',  ( 3.299999999999999822, 0.000000000000000000, 4.999999999999991118 ) ) ;
#183 = DIRECTION ( 'NONE',  ( -0.000000000000000000, -0.000000000000000000, -1.000000000000000000 ) ) ;
#184 = CC_DESIGN_PERSON_AND_ORGANIZATION_ASSIGNMENT ( #266, #193, ( #305 ) ) ;
#185 = PLANE ( 'NONE',  #205 ) ;
#186 = CARTESIAN_POINT ( 'NONE',  ( 0.000000000000000000, 0.000000000000000000, 5.000000000000000000 ) ) ;
#187 = DIRECTION ( 'NONE',  ( -0.000000000000000000, -0.000000000000000000, -1.000000000000000000 ) ) ;
#188 = APPROVAL_PERSON_ORGANIZATION ( #5, #107, #244 ) ;
#189 = CARTESIAN_POINT ( 'NONE',  ( -3.100000000000000089, 0.000000000000000000, 5.199999999999982414 ) ) ;
#190 = TOROIDAL_SURFACE ( 'NONE', #51, 3.299999999999999822, 0.2000000000000000111 ) ;
#191 = CYLINDRICAL_SURFACE ( 'NONE', #265, 3.100000000000000089 ) ;
#192 = CARTESIAN_POINT ( 'NONE',  ( 3.100000000000000089, 3.796405077356794918E-16, 5.199999999999982414 ) ) ;
#193 = PERSON_AND_ORGANIZATION_ROLE ( 'classification_officer' ) ;
#194 =( LENGTH_UNIT ( ) NAMED_UNIT ( * ) SI_UNIT ( .MILLI., .METRE. ) );
#195 = VERTEX_POINT ( 'NONE', #41 ) ;
#196 = VECTOR ( 'NONE', #202, 1000.000000000000000 ) ;
#197 = PERSON_AND_ORGANIZATION ( #235, #15 ) ;
#198 = ORIENTED_EDGE ( 'NONE', *, *, #263, .T. ) ;
#199 = CARTESIAN_POINT ( 'NONE',  ( 6.000000000000000888, 7.347880794884120722E-16, 5.000000000000000000 ) ) ;
#200 = AXIS2_PLACEMENT_3D ( 'NONE', #232, #18, #116 ) ;
#201 = APPROVAL_PERSON_ORGANIZATION ( #306, #95, #217 ) ;
#202 = DIRECTION ( 'NONE',  ( -0.000000000000000000, -0.000000000000000000, -1.000000000000000000 ) ) ;
#203 = EDGE_CURVE ( 'NONE', #10, #142, #177, .T. ) ;
#204 = ADVANCED_FACE ( 'NONE', ( #233 ), #191, .T. ) ;
#205 = AXIS2_PLACEMENT_3D ( 'NONE', #60, #38, #280 ) ;
#206 = ORIENTED_EDGE ( 'NONE', *, *, #256, .T. ) ;
#207 = EDGE_LOOP ( 'NONE', ( #245, #221, #179, #174 ) ) ;
#208 = ORIENTED_EDGE ( 'NONE', *, *, #248, .F. ) ;
#209 = PLANE ( 'NONE',  #12 ) ;
#210 = CIRCLE ( 'NONE', #71, 3.299999999999999822 ) ;
#211 = CARTESIAN_POINT ( 'NONE',  ( 0.000000000000000000, 0.000000000000000000, 1004.999999999999886 ) ) ;
#212 = CC_DESIGN_SECURITY_CLASSIFICATION ( #305, ( #283 ) ) ;
#213 = LINE ( 'NONE', #120, #293 ) ;
#214 = EDGE_CURVE ( 'NONE', #10, #150, #303, .T. ) ;
#215 = DIRECTION ( 'NONE',  ( 0.000000000000000000, -1.000000000000000000, 0.000000000000000000 ) ) ;
#216 = CARTESIAN_POINT ( 'NONE',  ( 0.000000000000000000, 0.000000000000000000, 5.199999999999982414 ) ) ;
#217 = APPROVAL_ROLE ( '' ) ;
#218 = CIRCLE ( 'NONE', #79, 3.299999999999999822 ) ;
#219 = PERSON_AND_ORGANIZATION_ROLE ( 'creator' ) ;
#220 = PERSON_AND_ORGANIZATION ( #235, #15 ) ;
#221 = ORIENTED_EDGE ( 'NONE', *, *, #45, .T. ) ;
#222 = VERTEX_POINT ( 'NONE', #189 ) ;
#223 = DIRECTION ( 'NONE',  ( 1.000000000000000000, 0.000000000000000000, 0.000000000000000000 ) ) ;
#224 = EDGE_LOOP ( 'NONE', ( #272, #242, #130, #73 ) ) ;
#225 = CIRCLE ( 'NONE', #52, 3.100000000000000089 ) ;
#226 = DIRECTION ( 'NONE',  ( 1.000000000000000000, 0.000000000000000000, 0.000000000000000000 ) ) ;
#227 = DIRECTION ( 'NONE',  ( -1.000000000000000000, 1.224646799147353207E-16, 0.000000000000000000 ) ) ;
#228 = CIRCLE ( 'NONE', #90, 6.000000000000000888 ) ;
#229 = VECTOR ( 'NONE', #261, 1000.000000000000000 ) ;
#230 = ORIENTED_EDGE ( 'NONE', *, *, #153, .T. ) ;
#231 = CC_DESIGN_PERSON_AND_ORGANIZATION_ASSIGNMENT ( #178, #155, ( #65 ) ) ;
#232 = CARTESIAN_POINT ( 'NONE',  ( 0.000000000000000000, 0.000000000000000000, 5.000000000000000000 ) ) ;
#233 = FACE_OUTER_BOUND ( 'NONE', #207, .T. ) ;
#234 = ADVANCED_FACE ( 'NONE', ( #171 ), #64, .F. ) ;
#235 = PERSON ( 'NEURÈENÝ', 'NEURÈENÝ', 'NEURÈENÝ', ('NEURÈENÝ'), ('NEURÈENÝ'), ('NEURÈENÝ') ) ;
#236 = DIRECTION ( 'NONE',  ( 1.000000000000000000, 0.000000000000000000, 0.000000000000000000 ) ) ;
#237 = CARTESIAN_POINT ( 'NONE',  ( 6.000000000000000888, 7.347880794884120722E-16, 0.000000000000000000 ) ) ;
#238 = CC_DESIGN_PERSON_AND_ORGANIZATION_ASSIGNMENT ( #197, #219, ( #283 ) ) ;
#239 = DIRECTION ( 'NONE',  ( 0.000000000000000000, 0.000000000000000000, 1.000000000000000000 ) ) ;
#240 = DESIGN_CONTEXT ( 'detailed design', #117, 'design' ) ;
#241 = PERSON_AND_ORGANIZATION_ROLE ( 'design_owner' ) ;
#242 = ORIENTED_EDGE ( 'NONE', *, *, #139, .F. ) ;
#243 = CC_DESIGN_APPROVAL ( #95, ( #65 ) ) ;
#244 = APPROVAL_ROLE ( '' ) ;
#245 = ORIENTED_EDGE ( 'NONE', *, *, #37, .F. ) ;
#246 = AXIS2_PLACEMENT_3D ( 'NONE', #58, #111, #159 ) ;
#247 = APPROVAL_DATE_TIME ( #307, #107 ) ;
#248 = EDGE_CURVE ( 'NONE', #142, #10, #228, .T. ) ;
#249 = DATE_AND_TIME ( #97, #106 ) ;
#250 = ORIENTED_EDGE ( 'NONE', *, *, #169, .T. ) ;
#251 = DIRECTION ( 'NONE',  ( 1.000000000000000000, 0.000000000000000000, 0.000000000000000000 ) ) ;
#252 = FACE_OUTER_BOUND ( 'NONE', #127, .T. ) ;
#253 = VECTOR ( 'NONE', #187, 1000.000000000000000 ) ;
#254 = CARTESIAN_POINT ( 'NONE',  ( 0.000000000000000000, 0.000000000000000000, 5.199999999999982414 ) ) ;
#255 = DIRECTION ( 'NONE',  ( 1.224646799147353207E-16, 1.000000000000000000, -0.000000000000000000 ) ) ;
#256 = EDGE_CURVE ( 'NONE', #195, #150, #165, .T. ) ;
#257 = AXIS2_PLACEMENT_3D ( 'NONE', #282, #239, #166 ) ;
#258 = CYLINDRICAL_SURFACE ( 'NONE', #200, 6.000000000000000888 ) ;
#259 = CARTESIAN_POINT ( 'NONE',  ( 0.000000000000000000, 0.000000000000000000, 5.000000000000000000 ) ) ;
#260 = DIRECTION ( 'NONE',  ( 1.000000000000000000, 0.000000000000000000, 0.000000000000000000 ) ) ;
#261 = DIRECTION ( 'NONE',  ( -0.000000000000000000, -0.000000000000000000, -1.000000000000000000 ) ) ;
#262 = CARTESIAN_POINT ( 'NONE',  ( 6.000000000000000888, 7.347880794884120722E-16, 5.000000000000000000 ) ) ;
#263 = EDGE_CURVE ( 'NONE', #150, #195, #9, .T. ) ;
#264 = ORIENTED_EDGE ( 'NONE', *, *, #147, .F. ) ;
#265 = AXIS2_PLACEMENT_3D ( 'NONE', #211, #19, #172 ) ;
#266 = PERSON_AND_ORGANIZATION ( #235, #15 ) ;
#267 = ORIENTED_EDGE ( 'NONE', *, *, #24, .F. ) ;
#268 = PRODUCT ( 'a077', 'a077', '', ( #123 ) ) ;
#269 = APPROVAL_STATUS ( 'not_yet_approved' ) ;
#270 = PRODUCT_RELATED_PRODUCT_CATEGORY ( 'detail', '', ( #268 ) ) ;
#271 = LOCAL_TIME ( 12, 10, 5.000000000000000000, #175 ) ;
#272 = ORIENTED_EDGE ( 'NONE', *, *, #45, .F. ) ;
#273 = LOCAL_TIME ( 12, 10, 5.000000000000000000, #77 ) ;
#274 = EDGE_CURVE ( 'NONE', #222, #275, #54, .T. ) ;
#275 = VERTEX_POINT ( 'NONE', #192 ) ;
#276 = DIRECTION ( 'NONE',  ( -1.000000000000000000, 0.000000000000000000, 0.000000000000000000 ) ) ;
#277 = CYLINDRICAL_SURFACE ( 'NONE', #110, 6.000000000000000888 ) ;
#278 = SHAPE_DEFINITION_REPRESENTATION ( #62, #34 ) ;
#279 = CARTESIAN_POINT ( 'NONE',  ( -3.100000000000000089, 0.000000000000000000, 1004.999999999999886 ) ) ;
#280 = DIRECTION ( 'NONE',  ( 1.000000000000000000, 0.000000000000000000, -0.000000000000000000 ) ) ;
#281 = APPROVAL ( #1, 'NEURÈENÝ' ) ;
#282 = CARTESIAN_POINT ( 'NONE',  ( 0.000000000000000000, 0.000000000000000000, 1004.999999999999886 ) ) ;
#283 = PRODUCT_DEFINITION_FORMATION_WITH_SPECIFIED_SOURCE ( 'LIBOVOLNÝ', '', #268, .NOT_KNOWN. ) ;
#284 = CARTESIAN_POINT ( 'NONE',  ( -3.100000000000000089, 0.000000000000000000, 1004.999999999999886 ) ) ;
#285 = ADVANCED_FACE ( 'NONE', ( #287 ), #149, .T. ) ;
#286 = CARTESIAN_POINT ( 'NONE',  ( 0.000000000000000000, 0.000000000000000000, 0.000000000000000000 ) ) ;
#287 = FACE_OUTER_BOUND ( 'NONE', #180, .T. ) ;
#288 = COORDINATED_UNIVERSAL_TIME_OFFSET ( 1, 0, .AHEAD. ) ;
#289 = COORDINATED_UNIVERSAL_TIME_OFFSET ( 1, 0, .AHEAD. ) ;
#290 = VERTEX_POINT ( 'NONE', #114 ) ;
#291 =( NAMED_UNIT ( * ) PLANE_ANGLE_UNIT ( ) SI_UNIT ( $, .RADIAN. ) );
#292 = SECURITY_CLASSIFICATION_LEVEL ( 'unclassified' ) ;
#293 = VECTOR ( 'NONE', #168, 1000.000000000000000 ) ;
#294 = CARTESIAN_POINT ( 'NONE',  ( 0.000000000000000000, 0.000000000000000000, 5.000000000000000000 ) ) ;
#295 = FACE_OUTER_BOUND ( 'NONE', #163, .T. ) ;
#296 = CYLINDRICAL_SURFACE ( 'NONE', #246, 3.100000000000000089 ) ;
#297 = ORIENTED_EDGE ( 'NONE', *, *, #256, .F. ) ;
#298 = EDGE_LOOP ( 'NONE', ( #17, #80 ) ) ;
#299 = DIRECTION ( 'NONE',  ( 0.000000000000000000, 0.000000000000000000, 1.000000000000000000 ) ) ;
#300 = CARTESIAN_POINT ( 'NONE',  ( 3.100000000000000089, 3.796405077356794918E-16, 1004.999999999999886 ) ) ;
#301 = CARTESIAN_POINT ( 'NONE',  ( 0.000000000000000000, 0.000000000000000000, 5.000000000000000000 ) ) ;
#302 = ADVANCED_FACE ( 'NONE', ( #63 ), #258, .T. ) ;
#303 = LINE ( 'NONE', #262, #229 ) ;
#304 = DIRECTION ( 'NONE',  ( 0.000000000000000000, 0.000000000000000000, 1.000000000000000000 ) ) ;
#305 = SECURITY_CLASSIFICATION ( '', '', #292 ) ;
#306 = PERSON_AND_ORGANIZATION ( #235, #15 ) ;
#307 = DATE_AND_TIME ( #129, #271 ) ;
ENDSEC;
END-ISO-10303-21;
