ISO-10303-21;
HEADER;
FILE_DESCRIPTION (( 'STEP AP203' ),
    '1' );
FILE_NAME ('ef01.STEP',
    '2022-07-07T10:27:58',
    ( '' ),
    ( '' ),
    'SwSTEP 2.0',
    'SolidWorks 2019',
    '' );
FILE_SCHEMA (( 'CONFIG_CONTROL_DESIGN' ));
ENDSEC;

DATA;
#1 = AXIS2_PLACEMENT_3D ( 'NONE', #17, #38, #10 ) ;
#2 = AXIS2_PLACEMENT_3D ( 'NONE', #31, #246, #132 ) ;
#3 = EDGE_CURVE ( 'NONE', #210, #86, #283, .T. ) ;
#4 = CLOSED_SHELL ( 'NONE', ( #53, #252, #298, #149, #218, #152, #124, #240, #102 ) ) ;
#5 = CARTESIAN_POINT ( 'NONE',  ( -1.950000000000000178, 2.388061258337339136E-16, 3.000000000000004441 ) ) ;
#6 = ORIENTED_EDGE ( 'NONE', *, *, #15, .T. ) ;
#7 = CC_DESIGN_SECURITY_CLASSIFICATION ( #13, ( #176 ) ) ;
#8 = LINE ( 'NONE', #155, #178 ) ;
#9 = EDGE_LOOP ( 'NONE', ( #159, #180, #126, #59 ) ) ;
#10 = DIRECTION ( 'NONE',  ( -1.000000000000000000, 0.000000000000000000, 0.000000000000000000 ) ) ;
#11 = ORIENTED_EDGE ( 'NONE', *, *, #238, .T. ) ;
#12 = TOROIDAL_SURFACE ( 'NONE', #55, 1.950000000000000178, 0.2000000000000000111 ) ;
#13 = SECURITY_CLASSIFICATION ( '', '', #219 ) ;
#14 = FACE_BOUND ( 'NONE', #106, .T. ) ;
#15 = EDGE_CURVE ( 'NONE', #189, #277, #117, .T. ) ;
#16 = ORIENTED_EDGE ( 'NONE', *, *, #48, .F. ) ;
#17 = CARTESIAN_POINT ( 'NONE',  ( 0.000000000000000000, 0.000000000000000000, 3.000000000000000000 ) ) ;
#18 = APPLICATION_PROTOCOL_DEFINITION ( 'international standard', 'config_control_design', 1994, #148 ) ;
#19 = AXIS2_PLACEMENT_3D ( 'NONE', #107, #229, #161 ) ;
#20 = CYLINDRICAL_SURFACE ( 'NONE', #264, 1.750000000000000000 ) ;
#21 = APPROVAL_STATUS ( 'not_yet_approved' ) ;
#22 = CARTESIAN_POINT ( 'NONE',  ( 0.000000000000000000, 0.000000000000000000, 3.000000000000000000 ) ) ;
#23 = CC_DESIGN_APPROVAL ( #278, ( #13 ) ) ;
#24 = LOCAL_TIME ( 12, 27, 58.00000000000000000, #191 ) ;
#25 = CYLINDRICAL_SURFACE ( 'NONE', #76, 1.750000000000000000 ) ;
#26 = ORIENTED_EDGE ( 'NONE', *, *, #79, .F. ) ;
#27 = CC_DESIGN_APPROVAL ( #190, ( #65 ) ) ;
#28 = PLANE ( 'NONE',  #134 ) ;
#29 = ORIENTED_EDGE ( 'NONE', *, *, #96, .F. ) ;
#30 = EDGE_CURVE ( 'NONE', #210, #133, #286, .T. ) ;
#31 = CARTESIAN_POINT ( 'NONE',  ( 0.000000000000000000, 0.000000000000000000, 3.000000000000000000 ) ) ;
#32 = CC_DESIGN_DATE_AND_TIME_ASSIGNMENT ( #97, #236, ( #65 ) ) ;
#33 = ORIENTED_EDGE ( 'NONE', *, *, #183, .T. ) ;
#34 = FACE_OUTER_BOUND ( 'NONE', #228, .T. ) ;
#35 = ORIENTED_EDGE ( 'NONE', *, *, #3, .F. ) ;
#36 = CC_DESIGN_PERSON_AND_ORGANIZATION_ASSIGNMENT ( #143, #116, ( #65 ) ) ;
#37 = MANIFOLD_SOLID_BREP ( 'Zaoblit1', #4 ) ;
#38 = DIRECTION ( 'NONE',  ( -0.000000000000000000, -0.000000000000000000, -1.000000000000000000 ) ) ;
#39 = AXIS2_PLACEMENT_3D ( 'NONE', #247, #113, #253 ) ;
#40 = DIRECTION ( 'NONE',  ( 1.224646799147353207E-16, 1.000000000000000000, -0.000000000000000000 ) ) ;
#41 = COORDINATED_UNIVERSAL_TIME_OFFSET ( 1, 0, .AHEAD. ) ;
#42 = CARTESIAN_POINT ( 'NONE',  ( 3.500000000000000444, 4.286263797015737088E-16, 3.000000000000000000 ) ) ;
#43 = PERSON_AND_ORGANIZATION_ROLE ( 'design_owner' ) ;
#44 = CALENDAR_DATE ( 2022, 7, 7 ) ;
#45 = CARTESIAN_POINT ( 'NONE',  ( 0.000000000000000000, 0.000000000000000000, 3.200000000000008171 ) ) ;
#46 = PERSON_AND_ORGANIZATION_ROLE ( 'creator' ) ;
#47 = AXIS2_PLACEMENT_3D ( 'NONE', #230, #282, #119 ) ;
#48 = EDGE_CURVE ( 'NONE', #269, #131, #193, .T. ) ;
#49 = DIRECTION ( 'NONE',  ( 0.000000000000000000, 0.000000000000000000, 1.000000000000000000 ) ) ;
#50 = CALENDAR_DATE ( 2022, 7, 7 ) ;
#51 = SHAPE_DEFINITION_REPRESENTATION ( #222, #122 ) ;
#52 = ORIENTED_EDGE ( 'NONE', *, *, #259, .F. ) ;
#53 = ADVANCED_FACE ( 'NONE', ( #98 ), #95, .F. ) ;
#54 = AXIS2_PLACEMENT_3D ( 'NONE', #22, #69, #237 ) ;
#55 = AXIS2_PLACEMENT_3D ( 'NONE', #45, #49, #233 ) ;
#56 = AXIS2_PLACEMENT_3D ( 'NONE', #188, #224, #103 ) ;
#57 = DIRECTION ( 'NONE',  ( 1.000000000000000000, 0.000000000000000000, 0.000000000000000000 ) ) ;
#58 = DIRECTION ( 'NONE',  ( 1.000000000000000000, 0.000000000000000000, 0.000000000000000000 ) ) ;
#59 = ORIENTED_EDGE ( 'NONE', *, *, #30, .F. ) ;
#60 = CC_DESIGN_PERSON_AND_ORGANIZATION_ASSIGNMENT ( #166, #248, ( #13 ) ) ;
#61 = CARTESIAN_POINT ( 'NONE',  ( 0.000000000000000000, 0.000000000000000000, 3.200000000000008171 ) ) ;
#62 = ORIENTED_EDGE ( 'NONE', *, *, #165, .F. ) ;
#63 = FACE_OUTER_BOUND ( 'NONE', #156, .T. ) ;
#64 = ORIENTED_EDGE ( 'NONE', *, *, #15, .F. ) ;
#65 = PRODUCT_DEFINITION ( 'NEZNÁMÝ', '', #176, #285 ) ;
#66 = CYLINDRICAL_SURFACE ( 'NONE', #200, 3.500000000000000444 ) ;
#67 = PERSON_AND_ORGANIZATION ( #231, #109 ) ;
#68 = APPLICATION_CONTEXT ( 'configuration controlled 3d designs of mechanical parts and assemblies' ) ;
#69 = DIRECTION ( 'NONE',  ( 0.000000000000000000, 0.000000000000000000, 1.000000000000000000 ) ) ;
#70 =( NAMED_UNIT ( * ) SI_UNIT ( $, .STERADIAN. ) SOLID_ANGLE_UNIT ( ) );
#71 = EDGE_CURVE ( 'NONE', #133, #163, #260, .T. ) ;
#72 = CARTESIAN_POINT ( 'NONE',  ( 0.000000000000000000, 0.000000000000000000, 0.000000000000000000 ) ) ;
#73 = APPROVAL_ROLE ( '' ) ;
#74 = DATE_TIME_ROLE ( 'classification_date' ) ;
#75 = CIRCLE ( 'NONE', #301, 0.1999999999999998723 ) ;
#76 = AXIS2_PLACEMENT_3D ( 'NONE', #186, #125, #289 ) ;
#77 = ORIENTED_EDGE ( 'NONE', *, *, #206, .T. ) ;
#78 = COORDINATED_UNIVERSAL_TIME_OFFSET ( 1, 0, .AHEAD. ) ;
#79 = EDGE_CURVE ( 'NONE', #269, #277, #232, .T. ) ;
#80 = AXIS2_PLACEMENT_3D ( 'NONE', #209, #266, #57 ) ;
#81 = CIRCLE ( 'NONE', #203, 3.500000000000000444 ) ;
#82 = DIRECTION ( 'NONE',  ( 0.000000000000000000, 0.000000000000000000, 1.000000000000000000 ) ) ;
#83 = FACE_OUTER_BOUND ( 'NONE', #108, .T. ) ;
#84 = EDGE_LOOP ( 'NONE', ( #208, #129, #192, #77 ) ) ;
#85 = DIRECTION ( 'NONE',  ( -0.000000000000000000, -0.000000000000000000, -1.000000000000000000 ) ) ;
#86 = VERTEX_POINT ( 'NONE', #196 ) ;
#87 =( GEOMETRIC_REPRESENTATION_CONTEXT ( 3 ) GLOBAL_UNCERTAINTY_ASSIGNED_CONTEXT ( ( #146 ) ) GLOBAL_UNIT_ASSIGNED_CONTEXT ( ( #130, #212, #70 ) ) REPRESENTATION_CONTEXT ( 'NONE', 'WORKASPACE' ) );
#88 = FACE_OUTER_BOUND ( 'NONE', #111, .T. ) ;
#89 = DIRECTION ( 'NONE',  ( 1.000000000000000000, 0.000000000000000000, -0.000000000000000000 ) ) ;
#90 = ORIENTED_EDGE ( 'NONE', *, *, #238, .F. ) ;
#91 = MECHANICAL_CONTEXT ( 'NONE', #148, 'mechanical' ) ;
#92 = FACE_OUTER_BOUND ( 'NONE', #267, .T. ) ;
#93 = APPLICATION_PROTOCOL_DEFINITION ( 'international standard', 'config_control_design', 1994, #68 ) ;
#94 = VECTOR ( 'NONE', #307, 1000.000000000000000 ) ;
#95 = TOROIDAL_SURFACE ( 'NONE', #261, 1.950000000000000178, 0.2000000000000000111 ) ;
#96 = EDGE_CURVE ( 'NONE', #86, #163, #75, .T. ) ;
#97 = DATE_AND_TIME ( #251, #287 ) ;
#98 = FACE_OUTER_BOUND ( 'NONE', #9, .T. ) ;
#99 = DIRECTION ( 'NONE',  ( -0.000000000000000000, -0.000000000000000000, -1.000000000000000000 ) ) ;
#100 = EDGE_CURVE ( 'NONE', #145, #210, #136, .T. ) ;
#101 = CIRCLE ( 'NONE', #56, 1.750000000000000000 ) ;
#102 = ADVANCED_FACE ( 'NONE', ( #215 ), #12, .F. ) ;
#103 = DIRECTION ( 'NONE',  ( 1.000000000000000000, 0.000000000000000000, 0.000000000000000000 ) ) ;
#104 = ORIENTED_EDGE ( 'NONE', *, *, #201, .T. ) ;
#105 = CARTESIAN_POINT ( 'NONE',  ( 0.000000000000000000, 0.000000000000000000, 3.000000000000000000 ) ) ;
#106 = EDGE_LOOP ( 'NONE', ( #185, #243 ) ) ;
#107 = CARTESIAN_POINT ( 'NONE',  ( 0.000000000000000000, 0.000000000000000000, 253.0000000000000000 ) ) ;
#108 = EDGE_LOOP ( 'NONE', ( #104, #174 ) ) ;
#109 = ORGANIZATION ( 'NEURÈENÝ', 'NEURÈENÝ', '' ) ;
#110 = CARTESIAN_POINT ( 'NONE',  ( 3.500000000000000444, 4.286263797015737088E-16, 0.000000000000000000 ) ) ;
#111 = EDGE_LOOP ( 'NONE', ( #52, #187, #154, #220 ) ) ;
#112 = FACE_OUTER_BOUND ( 'NONE', #288, .T. ) ;
#113 = DIRECTION ( 'NONE',  ( -0.000000000000000000, -0.000000000000000000, -1.000000000000000000 ) ) ;
#114 = CARTESIAN_POINT ( 'NONE',  ( 0.000000000000000000, 0.000000000000000000, 0.000000000000000000 ) ) ;
#115 = DIRECTION ( 'NONE',  ( 0.000000000000000000, 0.000000000000000000, 1.000000000000000000 ) ) ;
#116 = PERSON_AND_ORGANIZATION_ROLE ( 'creator' ) ;
#117 = CIRCLE ( 'NONE', #150, 3.500000000000000444 ) ;
#118 = APPROVAL_PERSON_ORGANIZATION ( #140, #234, #276 ) ;
#119 = DIRECTION ( 'NONE',  ( 0.000000000000000000, 0.000000000000000000, -1.000000000000000000 ) ) ;
#120 = PERSON_AND_ORGANIZATION_ROLE ( 'design_supplier' ) ;
#121 = FACE_OUTER_BOUND ( 'NONE', #84, .T. ) ;
#122 = ADVANCED_BREP_SHAPE_REPRESENTATION ( 'ef01', ( #37, #294 ), #87 ) ;
#123 = CIRCLE ( 'NONE', #271, 1.750000000000000000 ) ;
#124 = ADVANCED_FACE ( 'NONE', ( #121 ), #20, .T. ) ;
#125 = DIRECTION ( 'NONE',  ( -0.000000000000000000, -0.000000000000000000, -1.000000000000000000 ) ) ;
#126 = ORIENTED_EDGE ( 'NONE', *, *, #71, .F. ) ;
#127 = AXIS2_PLACEMENT_3D ( 'NONE', #105, #227, #58 ) ;
#128 = CARTESIAN_POINT ( 'NONE',  ( 0.000000000000000000, 0.000000000000000000, 0.000000000000000000 ) ) ;
#129 = ORIENTED_EDGE ( 'NONE', *, *, #201, .F. ) ;
#130 =( LENGTH_UNIT ( ) NAMED_UNIT ( * ) SI_UNIT ( .MILLI., .METRE. ) );
#131 = VERTEX_POINT ( 'NONE', #42 ) ;
#132 = DIRECTION ( 'NONE',  ( 1.000000000000000000, 0.000000000000000000, -0.000000000000000000 ) ) ;
#133 = VERTEX_POINT ( 'NONE', #214 ) ;
#134 = AXIS2_PLACEMENT_3D ( 'NONE', #128, #268, #89 ) ;
#135 = DIRECTION ( 'NONE',  ( 1.000000000000000000, 0.000000000000000000, 0.000000000000000000 ) ) ;
#136 = LINE ( 'NONE', #303, #202 ) ;
#137 = CYLINDRICAL_SURFACE ( 'NONE', #1, 3.500000000000000444 ) ;
#138 = PERSON_AND_ORGANIZATION ( #231, #109 ) ;
#139 = DIRECTION ( 'NONE',  ( 1.000000000000000000, 0.000000000000000000, 0.000000000000000000 ) ) ;
#140 = PERSON_AND_ORGANIZATION ( #231, #109 ) ;
#141 = VECTOR ( 'NONE', #207, 1000.000000000000000 ) ;
#142 = EDGE_LOOP ( 'NONE', ( #29, #35, #293, #245 ) ) ;
#143 = PERSON_AND_ORGANIZATION ( #231, #109 ) ;
#144 = APPROVAL_STATUS ( 'not_yet_approved' ) ;
#145 = VERTEX_POINT ( 'NONE', #299 ) ;
#146 = UNCERTAINTY_MEASURE_WITH_UNIT (LENGTH_MEASURE( 1.000000000000000082E-05 ), #130, 'distance_accuracy_value', 'NONE');
#147 = DATE_AND_TIME ( #44, #244 ) ;
#148 = APPLICATION_CONTEXT ( 'configuration controlled 3d designs of mechanical parts and assemblies' ) ;
#149 = ADVANCED_FACE ( 'NONE', ( #92 ), #137, .T. ) ;
#150 = AXIS2_PLACEMENT_3D ( 'NONE', #72, #115, #139 ) ;
#151 = LOCAL_TIME ( 12, 27, 58.00000000000000000, #41 ) ;
#152 = ADVANCED_FACE ( 'NONE', ( #34 ), #28, .F. ) ;
#153 = CARTESIAN_POINT ( 'NONE',  ( 1.750000000000000000, 2.143131898507868297E-16, 3.200000000000008171 ) ) ;
#154 = ORIENTED_EDGE ( 'NONE', *, *, #3, .T. ) ;
#155 = CARTESIAN_POINT ( 'NONE',  ( 3.500000000000000444, 4.286263797015737088E-16, 3.000000000000000000 ) ) ;
#156 = EDGE_LOOP ( 'NONE', ( #204, #225, #6, #26 ) ) ;
#157 = CIRCLE ( 'NONE', #80, 3.500000000000000444 ) ;
#158 = CARTESIAN_POINT ( 'NONE',  ( -1.750000000000000000, 0.000000000000000000, 253.0000000000000000 ) ) ;
#159 = ORIENTED_EDGE ( 'NONE', *, *, #206, .F. ) ;
#160 = CC_DESIGN_PERSON_AND_ORGANIZATION_ASSIGNMENT ( #168, #43, ( #262 ) ) ;
#161 = DIRECTION ( 'NONE',  ( 1.000000000000000000, 0.000000000000000000, 0.000000000000000000 ) ) ;
#162 = CC_DESIGN_DATE_AND_TIME_ASSIGNMENT ( #249, #74, ( #13 ) ) ;
#163 = VERTEX_POINT ( 'NONE', #5 ) ;
#164 = CARTESIAN_POINT ( 'NONE',  ( 0.000000000000000000, 0.000000000000000000, 3.000000000000000000 ) ) ;
#165 = EDGE_CURVE ( 'NONE', #131, #189, #8, .T. ) ;
#166 = PERSON_AND_ORGANIZATION ( #231, #109 ) ;
#167 = ORIENTED_EDGE ( 'NONE', *, *, #48, .T. ) ;
#168 = PERSON_AND_ORGANIZATION ( #231, #109 ) ;
#169 = CARTESIAN_POINT ( 'NONE',  ( -1.950000000000000178, 2.388061258337339136E-16, 3.200000000000008171 ) ) ;
#170 = APPROVAL_DATE_TIME ( #147, #278 ) ;
#171 = DIRECTION ( 'NONE',  ( -0.000000000000000000, -0.000000000000000000, -1.000000000000000000 ) ) ;
#172 = APPROVAL_DATE_TIME ( #281, #190 ) ;
#173 = LOCAL_TIME ( 12, 27, 58.00000000000000000, #197 ) ;
#174 = ORIENTED_EDGE ( 'NONE', *, *, #259, .T. ) ;
#175 = PRODUCT_RELATED_PRODUCT_CATEGORY ( 'detail', '', ( #262 ) ) ;
#176 = PRODUCT_DEFINITION_FORMATION_WITH_SPECIFIED_SOURCE ( 'LIBOVOLNÝ', '', #262, .NOT_KNOWN. ) ;
#177 = CC_DESIGN_PERSON_AND_ORGANIZATION_ASSIGNMENT ( #67, #120, ( #176 ) ) ;
#178 = VECTOR ( 'NONE', #213, 1000.000000000000000 ) ;
#179 = DIRECTION ( 'NONE',  ( 1.000000000000000000, 0.000000000000000000, 0.000000000000000000 ) ) ;
#180 = ORIENTED_EDGE ( 'NONE', *, *, #96, .T. ) ;
#181 = DIRECTION ( 'NONE',  ( 0.000000000000000000, 0.000000000000000000, 1.000000000000000000 ) ) ;
#182 = ORIENTED_EDGE ( 'NONE', *, *, #79, .T. ) ;
#183 = EDGE_CURVE ( 'NONE', #131, #269, #81, .T. ) ;
#184 = DIRECTION ( 'NONE',  ( 0.000000000000000000, 0.000000000000000000, 1.000000000000000000 ) ) ;
#185 = ORIENTED_EDGE ( 'NONE', *, *, #71, .T. ) ;
#186 = CARTESIAN_POINT ( 'NONE',  ( 0.000000000000000000, 0.000000000000000000, 253.0000000000000000 ) ) ;
#187 = ORIENTED_EDGE ( 'NONE', *, *, #100, .T. ) ;
#188 = CARTESIAN_POINT ( 'NONE',  ( 0.000000000000000000, 0.000000000000000000, 253.0000000000000000 ) ) ;
#189 = VERTEX_POINT ( 'NONE', #110 ) ;
#190 = APPROVAL ( #194, 'NEURÈENÝ' ) ;
#191 = COORDINATED_UNIVERSAL_TIME_OFFSET ( 1, 0, .AHEAD. ) ;
#192 = ORIENTED_EDGE ( 'NONE', *, *, #265, .T. ) ;
#193 = CIRCLE ( 'NONE', #54, 3.500000000000000444 ) ;
#194 = APPROVAL_STATUS ( 'not_yet_approved' ) ;
#195 = CALENDAR_DATE ( 2022, 7, 7 ) ;
#196 = CARTESIAN_POINT ( 'NONE',  ( -1.750000000000000000, 0.000000000000000000, 3.200000000000008171 ) ) ;
#197 = COORDINATED_UNIVERSAL_TIME_OFFSET ( 1, 0, .AHEAD. ) ;
#198 = CARTESIAN_POINT ( 'NONE',  ( 0.000000000000000000, 0.000000000000000000, 3.200000000000008171 ) ) ;
#199 = DIRECTION ( 'NONE',  ( -1.000000000000000000, 0.000000000000000000, 0.000000000000000000 ) ) ;
#200 = AXIS2_PLACEMENT_3D ( 'NONE', #164, #85, #270 ) ;
#201 = EDGE_CURVE ( 'NONE', #291, #145, #223, .T. ) ;
#202 = VECTOR ( 'NONE', #171, 1000.000000000000000 ) ;
#203 = AXIS2_PLACEMENT_3D ( 'NONE', #226, #82, #135 ) ;
#204 = ORIENTED_EDGE ( 'NONE', *, *, #183, .F. ) ;
#205 = PLANE ( 'NONE',  #239 ) ;
#206 = EDGE_CURVE ( 'NONE', #86, #210, #123, .T. ) ;
#207 = DIRECTION ( 'NONE',  ( -0.000000000000000000, -0.000000000000000000, -1.000000000000000000 ) ) ;
#208 = ORIENTED_EDGE ( 'NONE', *, *, #100, .F. ) ;
#209 = CARTESIAN_POINT ( 'NONE',  ( 0.000000000000000000, 0.000000000000000000, 0.000000000000000000 ) ) ;
#210 = VERTEX_POINT ( 'NONE', #153 ) ;
#211 = AXIS2_PLACEMENT_3D ( 'NONE', #305, #250, #235 ) ;
#212 =( NAMED_UNIT ( * ) PLANE_ANGLE_UNIT ( ) SI_UNIT ( $, .RADIAN. ) );
#213 = DIRECTION ( 'NONE',  ( -0.000000000000000000, -0.000000000000000000, -1.000000000000000000 ) ) ;
#214 = CARTESIAN_POINT ( 'NONE',  ( 1.950000000000000178, 0.000000000000000000, 3.000000000000004441 ) ) ;
#215 = FACE_OUTER_BOUND ( 'NONE', #142, .T. ) ;
#216 = APPROVAL_PERSON_ORGANIZATION ( #257, #278, #297 ) ;
#217 = CARTESIAN_POINT ( 'NONE',  ( -3.500000000000000444, 0.000000000000000000, 3.000000000000000000 ) ) ;
#218 = ADVANCED_FACE ( 'NONE', ( #14, #112 ), #273, .T. ) ;
#219 = SECURITY_CLASSIFICATION_LEVEL ( 'unclassified' ) ;
#220 = ORIENTED_EDGE ( 'NONE', *, *, #265, .F. ) ;
#221 = CC_DESIGN_PERSON_AND_ORGANIZATION_ASSIGNMENT ( #274, #46, ( #176 ) ) ;
#222 = PRODUCT_DEFINITION_SHAPE ( 'NONE', 'NONE',  #65 ) ;
#223 = CIRCLE ( 'NONE', #19, 1.750000000000000000 ) ;
#224 = DIRECTION ( 'NONE',  ( 0.000000000000000000, 0.000000000000000000, 1.000000000000000000 ) ) ;
#225 = ORIENTED_EDGE ( 'NONE', *, *, #165, .T. ) ;
#226 = CARTESIAN_POINT ( 'NONE',  ( 0.000000000000000000, 0.000000000000000000, 3.000000000000000000 ) ) ;
#227 = DIRECTION ( 'NONE',  ( -0.000000000000000000, -0.000000000000000000, -1.000000000000000000 ) ) ;
#228 = EDGE_LOOP ( 'NONE', ( #90, #64 ) ) ;
#229 = DIRECTION ( 'NONE',  ( 0.000000000000000000, 0.000000000000000000, 1.000000000000000000 ) ) ;
#230 = CARTESIAN_POINT ( 'NONE',  ( 1.950000000000000178, 0.000000000000000000, 3.200000000000008171 ) ) ;
#231 = PERSON ( 'NEURÈENÝ', 'NEURÈENÝ', 'NEURÈENÝ', ('NEURÈENÝ'), ('NEURÈENÝ'), ('NEURÈENÝ') ) ;
#232 = LINE ( 'NONE', #217, #94 ) ;
#233 = DIRECTION ( 'NONE',  ( 1.000000000000000000, 0.000000000000000000, 0.000000000000000000 ) ) ;
#234 = APPROVAL ( #21, 'NEURÈENÝ' ) ;
#235 = DIRECTION ( 'NONE',  ( 1.000000000000000000, 0.000000000000000000, 0.000000000000000000 ) ) ;
#236 = DATE_TIME_ROLE ( 'creation_date' ) ;
#237 = DIRECTION ( 'NONE',  ( 1.000000000000000000, 0.000000000000000000, 0.000000000000000000 ) ) ;
#238 = EDGE_CURVE ( 'NONE', #277, #189, #157, .T. ) ;
#239 = AXIS2_PLACEMENT_3D ( 'NONE', #292, #181, #241 ) ;
#240 = ADVANCED_FACE ( 'NONE', ( #83 ), #205, .T. ) ;
#241 = DIRECTION ( 'NONE',  ( 1.000000000000000000, 0.000000000000000000, -0.000000000000000000 ) ) ;
#242 = LINE ( 'NONE', #295, #141 ) ;
#243 = ORIENTED_EDGE ( 'NONE', *, *, #263, .T. ) ;
#244 = LOCAL_TIME ( 12, 27, 58.00000000000000000, #78 ) ;
#245 = ORIENTED_EDGE ( 'NONE', *, *, #263, .F. ) ;
#246 = DIRECTION ( 'NONE',  ( 0.000000000000000000, 0.000000000000000000, 1.000000000000000000 ) ) ;
#247 = CARTESIAN_POINT ( 'NONE',  ( 0.000000000000000000, 0.000000000000000000, 3.000000000000000000 ) ) ;
#248 = PERSON_AND_ORGANIZATION_ROLE ( 'classification_officer' ) ;
#249 = DATE_AND_TIME ( #195, #151 ) ;
#250 = DIRECTION ( 'NONE',  ( 0.000000000000000000, 0.000000000000000000, 1.000000000000000000 ) ) ;
#251 = CALENDAR_DATE ( 2022, 7, 7 ) ;
#252 = ADVANCED_FACE ( 'NONE', ( #88 ), #25, .T. ) ;
#253 = DIRECTION ( 'NONE',  ( 1.000000000000000000, 0.000000000000000000, 0.000000000000000000 ) ) ;
#254 = APPROVAL_DATE_TIME ( #296, #234 ) ;
#255 = CARTESIAN_POINT ( 'NONE',  ( 0.000000000000000000, 0.000000000000000000, 253.0000000000000000 ) ) ;
#256 = CIRCLE ( 'NONE', #127, 1.950000000000000178 ) ;
#257 = PERSON_AND_ORGANIZATION ( #231, #109 ) ;
#258 = DIRECTION ( 'NONE',  ( 0.000000000000000000, 0.000000000000000000, 1.000000000000000000 ) ) ;
#259 = EDGE_CURVE ( 'NONE', #145, #291, #101, .T. ) ;
#260 = CIRCLE ( 'NONE', #39, 1.950000000000000178 ) ;
#261 = AXIS2_PLACEMENT_3D ( 'NONE', #198, #258, #275 ) ;
#262 = PRODUCT ( 'ef01', 'ef01', '', ( #91 ) ) ;
#263 = EDGE_CURVE ( 'NONE', #163, #133, #256, .T. ) ;
#264 = AXIS2_PLACEMENT_3D ( 'NONE', #255, #99, #199 ) ;
#265 = EDGE_CURVE ( 'NONE', #291, #86, #242, .T. ) ;
#266 = DIRECTION ( 'NONE',  ( 0.000000000000000000, 0.000000000000000000, 1.000000000000000000 ) ) ;
#267 = EDGE_LOOP ( 'NONE', ( #62, #16, #182, #11 ) ) ;
#268 = DIRECTION ( 'NONE',  ( 0.000000000000000000, 0.000000000000000000, 1.000000000000000000 ) ) ;
#269 = VERTEX_POINT ( 'NONE', #290 ) ;
#270 = DIRECTION ( 'NONE',  ( -1.000000000000000000, 0.000000000000000000, 0.000000000000000000 ) ) ;
#271 = AXIS2_PLACEMENT_3D ( 'NONE', #61, #184, #179 ) ;
#272 = CARTESIAN_POINT ( 'NONE',  ( -3.500000000000000444, 0.000000000000000000, 0.000000000000000000 ) ) ;
#273 = PLANE ( 'NONE',  #2 ) ;
#274 = PERSON_AND_ORGANIZATION ( #231, #109 ) ;
#275 = DIRECTION ( 'NONE',  ( 1.000000000000000000, 0.000000000000000000, 0.000000000000000000 ) ) ;
#276 = APPROVAL_ROLE ( '' ) ;
#277 = VERTEX_POINT ( 'NONE', #272 ) ;
#278 = APPROVAL ( #144, 'NEURÈENÝ' ) ;
#279 = CALENDAR_DATE ( 2022, 7, 7 ) ;
#280 = DIRECTION ( 'NONE',  ( -1.000000000000000000, 1.224646799147354686E-16, 0.000000000000000000 ) ) ;
#281 = DATE_AND_TIME ( #50, #173 ) ;
#282 = DIRECTION ( 'NONE',  ( 0.000000000000000000, -1.000000000000000000, 0.000000000000000000 ) ) ;
#283 = CIRCLE ( 'NONE', #211, 1.750000000000000000 ) ;
#284 = CC_DESIGN_APPROVAL ( #234, ( #176 ) ) ;
#285 = DESIGN_CONTEXT ( 'detailed design', #68, 'design' ) ;
#286 = CIRCLE ( 'NONE', #47, 0.2000000000000000944 ) ;
#287 = LOCAL_TIME ( 12, 27, 58.00000000000000000, #306 ) ;
#288 = EDGE_LOOP ( 'NONE', ( #167, #33 ) ) ;
#289 = DIRECTION ( 'NONE',  ( -1.000000000000000000, 0.000000000000000000, 0.000000000000000000 ) ) ;
#290 = CARTESIAN_POINT ( 'NONE',  ( -3.500000000000000444, 0.000000000000000000, 3.000000000000000000 ) ) ;
#291 = VERTEX_POINT ( 'NONE', #158 ) ;
#292 = CARTESIAN_POINT ( 'NONE',  ( 0.000000000000000000, 0.000000000000000000, 253.0000000000000000 ) ) ;
#293 = ORIENTED_EDGE ( 'NONE', *, *, #30, .T. ) ;
#294 = AXIS2_PLACEMENT_3D ( 'NONE', #114, #304, #300 ) ;
#295 = CARTESIAN_POINT ( 'NONE',  ( -1.750000000000000000, 0.000000000000000000, 253.0000000000000000 ) ) ;
#296 = DATE_AND_TIME ( #279, #24 ) ;
#297 = APPROVAL_ROLE ( '' ) ;
#298 = ADVANCED_FACE ( 'NONE', ( #63 ), #66, .T. ) ;
#299 = CARTESIAN_POINT ( 'NONE',  ( 1.750000000000000000, 2.143131898507868297E-16, 253.0000000000000000 ) ) ;
#300 = DIRECTION ( 'NONE',  ( 1.000000000000000000, 0.000000000000000000, 0.000000000000000000 ) ) ;
#301 = AXIS2_PLACEMENT_3D ( 'NONE', #169, #40, #280 ) ;
#302 = APPROVAL_PERSON_ORGANIZATION ( #138, #190, #73 ) ;
#303 = CARTESIAN_POINT ( 'NONE',  ( 1.750000000000000000, 2.143131898507868297E-16, 253.0000000000000000 ) ) ;
#304 = DIRECTION ( 'NONE',  ( 0.000000000000000000, 0.000000000000000000, 1.000000000000000000 ) ) ;
#305 = CARTESIAN_POINT ( 'NONE',  ( 0.000000000000000000, 0.000000000000000000, 3.200000000000008171 ) ) ;
#306 = COORDINATED_UNIVERSAL_TIME_OFFSET ( 1, 0, .AHEAD. ) ;
#307 = DIRECTION ( 'NONE',  ( -0.000000000000000000, -0.000000000000000000, -1.000000000000000000 ) ) ;
ENDSEC;
END-ISO-10303-21;
