ISO-10303-21;
HEADER;
FILE_DESCRIPTION (( 'STEP AP203' ),
    '1' );
FILE_NAME ('d856.STEP',
    '2023-02-12T12:54:24',
    ( '' ),
    ( '' ),
    'SwSTEP 2.0',
    'SolidWorks 2019',
    '' );
FILE_SCHEMA (( 'CONFIG_CONTROL_DESIGN' ));
ENDSEC;

DATA;
#1 = LINE ( 'NONE', #158, #236 ) ;
#2 =( NAMED_UNIT ( * ) PLANE_ANGLE_UNIT ( ) SI_UNIT ( $, .RADIAN. ) );
#3 = DATE_TIME_ROLE ( 'classification_date' ) ;
#4 = FACE_OUTER_BOUND ( 'NONE', #166, .T. ) ;
#5 = EDGE_LOOP ( 'NONE', ( #97, #154, #194, #246 ) ) ;
#6 = COORDINATED_UNIVERSAL_TIME_OFFSET ( 1, 0, .AHEAD. ) ;
#7 = CARTESIAN_POINT ( 'NONE',  ( 2.000000000000000000, 2.449293598294706414E-16, 0.000000000000000000 ) ) ;
#8 = FACE_OUTER_BOUND ( 'NONE', #111, .T. ) ;
#9 = EDGE_LOOP ( 'NONE', ( #69, #77, #140, #199 ) ) ;
#10 = APPLICATION_PROTOCOL_DEFINITION ( 'international standard', 'config_control_design', 1994, #214 ) ;
#11 = LOCAL_TIME ( 13, 54, 24.00000000000000000, #143 ) ;
#12 = CARTESIAN_POINT ( 'NONE',  ( 0.000000000000000000, 0.000000000000000000, 1.500000000000000000 ) ) ;
#13 = DATE_AND_TIME ( #185, #171 ) ;
#14 = VERTEX_POINT ( 'NONE', #55 ) ;
#15 = VERTEX_POINT ( 'NONE', #132 ) ;
#16 = AXIS2_PLACEMENT_3D ( 'NONE', #192, #126, #22 ) ;
#17 = PRODUCT_DEFINITION_FORMATION_WITH_SPECIFIED_SOURCE ( 'LIBOVOLNÝ', '', #168, .NOT_KNOWN. ) ;
#18 = ORIENTED_EDGE ( 'NONE', *, *, #164, .F. ) ;
#19 = CARTESIAN_POINT ( 'NONE',  ( 0.000000000000000000, 0.000000000000000000, 160.0000000000000000 ) ) ;
#20 = CC_DESIGN_PERSON_AND_ORGANIZATION_ASSIGNMENT ( #32, #112, ( #148 ) ) ;
#21 = DIRECTION ( 'NONE',  ( 1.000000000000000000, 0.000000000000000000, -0.000000000000000000 ) ) ;
#22 = DIRECTION ( 'NONE',  ( 1.000000000000000000, 0.000000000000000000, 0.000000000000000000 ) ) ;
#23 = DIRECTION ( 'NONE',  ( 0.000000000000000000, 0.000000000000000000, 1.000000000000000000 ) ) ;
#24 = ORIENTED_EDGE ( 'NONE', *, *, #179, .T. ) ;
#25 = EDGE_CURVE ( 'NONE', #14, #56, #254, .T. ) ;
#26 = PLANE ( 'NONE',  #233 ) ;
#27 = LOCAL_TIME ( 13, 54, 24.00000000000000000, #240 ) ;
#28 = DIRECTION ( 'NONE',  ( 1.000000000000000000, 0.000000000000000000, 0.000000000000000000 ) ) ;
#29 = CC_DESIGN_PERSON_AND_ORGANIZATION_ASSIGNMENT ( #173, #88, ( #190 ) ) ;
#30 = APPLICATION_PROTOCOL_DEFINITION ( 'international standard', 'config_control_design', 1994, #202 ) ;
#31 = ORIENTED_EDGE ( 'NONE', *, *, #164, .T. ) ;
#32 = PERSON_AND_ORGANIZATION ( #76, #81 ) ;
#33 = MECHANICAL_CONTEXT ( 'NONE', #202, 'mechanical' ) ;
#34 = CC_DESIGN_SECURITY_CLASSIFICATION ( #190, ( #17 ) ) ;
#35 = ADVANCED_FACE ( 'NONE', ( #201 ), #72, .T. ) ;
#36 =( NAMED_UNIT ( * ) SI_UNIT ( $, .STERADIAN. ) SOLID_ANGLE_UNIT ( ) );
#37 = AXIS2_PLACEMENT_3D ( 'NONE', #12, #242, #167 ) ;
#38 = ADVANCED_FACE ( 'NONE', ( #51, #57 ), #163, .T. ) ;
#39 = DIRECTION ( 'NONE',  ( 0.000000000000000000, 0.000000000000000000, 1.000000000000000000 ) ) ;
#40 = LINE ( 'NONE', #109, #161 ) ;
#41 = APPROVAL_DATE_TIME ( #65, #123 ) ;
#42 = DIRECTION ( 'NONE',  ( -0.000000000000000000, -0.000000000000000000, -1.000000000000000000 ) ) ;
#43 = APPROVAL ( #183, 'NEURÈENÝ' ) ;
#44 = VERTEX_POINT ( 'NONE', #224 ) ;
#45 = CARTESIAN_POINT ( 'NONE',  ( 0.000000000000000000, 0.000000000000000000, 0.000000000000000000 ) ) ;
#46 = PERSON_AND_ORGANIZATION ( #76, #81 ) ;
#47 = FACE_OUTER_BOUND ( 'NONE', #9, .T. ) ;
#48 = AXIS2_PLACEMENT_3D ( 'NONE', #64, #213, #21 ) ;
#49 = EDGE_CURVE ( 'NONE', #56, #14, #116, .T. ) ;
#50 = CYLINDRICAL_SURFACE ( 'NONE', #136, 0.9000000000000000222 ) ;
#51 = FACE_BOUND ( 'NONE', #221, .T. ) ;
#52 = APPROVAL_STATUS ( 'not_yet_approved' ) ;
#53 = DATE_TIME_ROLE ( 'creation_date' ) ;
#54 = APPROVAL_PERSON_ORGANIZATION ( #89, #43, #147 ) ;
#55 = CARTESIAN_POINT ( 'NONE',  ( 2.000000000000000000, 2.449293598294706414E-16, 1.500000000000000000 ) ) ;
#56 = VERTEX_POINT ( 'NONE', #59 ) ;
#57 = FACE_OUTER_BOUND ( 'NONE', #237, .T. ) ;
#58 = CIRCLE ( 'NONE', #90, 2.000000000000000000 ) ;
#59 = CARTESIAN_POINT ( 'NONE',  ( -2.000000000000000000, 0.000000000000000000, 1.500000000000000000 ) ) ;
#60 = LOCAL_TIME ( 13, 54, 24.00000000000000000, #244 ) ;
#61 = DIRECTION ( 'NONE',  ( -0.000000000000000000, -0.000000000000000000, -1.000000000000000000 ) ) ;
#62 = CC_DESIGN_PERSON_AND_ORGANIZATION_ASSIGNMENT ( #245, #131, ( #17 ) ) ;
#63 = CC_DESIGN_APPROVAL ( #253, ( #17 ) ) ;
#64 = CARTESIAN_POINT ( 'NONE',  ( 0.000000000000000000, 0.000000000000000000, 160.0000000000000000 ) ) ;
#65 = DATE_AND_TIME ( #85, #70 ) ;
#66 = CARTESIAN_POINT ( 'NONE',  ( 0.000000000000000000, 0.000000000000000000, 1.500000000000000000 ) ) ;
#67 = CARTESIAN_POINT ( 'NONE',  ( -0.9000000000000000222, 0.000000000000000000, 1.500000000000000000 ) ) ;
#68 = DIRECTION ( 'NONE',  ( 1.000000000000000000, 0.000000000000000000, -0.000000000000000000 ) ) ;
#69 = ORIENTED_EDGE ( 'NONE', *, *, #25, .F. ) ;
#70 = LOCAL_TIME ( 13, 54, 24.00000000000000000, #6 ) ;
#71 = CALENDAR_DATE ( 2023, 12, 2 ) ;
#72 = CYLINDRICAL_SURFACE ( 'NONE', #218, 2.000000000000000000 ) ;
#73 = CALENDAR_DATE ( 2023, 12, 2 ) ;
#74 = EDGE_CURVE ( 'NONE', #144, #44, #205, .T. ) ;
#75 = DIRECTION ( 'NONE',  ( 1.000000000000000000, 0.000000000000000000, 0.000000000000000000 ) ) ;
#76 = PERSON ( 'NEURÈENÝ', 'NEURÈENÝ', 'NEURÈENÝ', ('NEURÈENÝ'), ('NEURÈENÝ'), ('NEURÈENÝ') ) ;
#77 = ORIENTED_EDGE ( 'NONE', *, *, #255, .T. ) ;
#78 = ADVANCED_FACE ( 'NONE', ( #252 ), #80, .T. ) ;
#79 = AXIS2_PLACEMENT_3D ( 'NONE', #149, #61, #101 ) ;
#80 = CYLINDRICAL_SURFACE ( 'NONE', #79, 0.9000000000000000222 ) ;
#81 = ORGANIZATION ( 'NEURÈENÝ', 'NEURÈENÝ', '' ) ;
#82 = DIRECTION ( 'NONE',  ( -0.000000000000000000, -0.000000000000000000, -1.000000000000000000 ) ) ;
#83 = CARTESIAN_POINT ( 'NONE',  ( 0.000000000000000000, 0.000000000000000000, 160.0000000000000000 ) ) ;
#84 = CARTESIAN_POINT ( 'NONE',  ( 0.000000000000000000, 0.000000000000000000, 0.000000000000000000 ) ) ;
#85 = CALENDAR_DATE ( 2023, 12, 2 ) ;
#86 = EDGE_CURVE ( 'NONE', #177, #94, #58, .T. ) ;
#87 = LINE ( 'NONE', #124, #130 ) ;
#88 = PERSON_AND_ORGANIZATION_ROLE ( 'classification_officer' ) ;
#89 = PERSON_AND_ORGANIZATION ( #76, #81 ) ;
#90 = AXIS2_PLACEMENT_3D ( 'NONE', #45, #176, #195 ) ;
#91 = DATE_AND_TIME ( #71, #27 ) ;
#92 = DIRECTION ( 'NONE',  ( -0.000000000000000000, -0.000000000000000000, -1.000000000000000000 ) ) ;
#93 = CC_DESIGN_PERSON_AND_ORGANIZATION_ASSIGNMENT ( #198, #182, ( #168 ) ) ;
#94 = VERTEX_POINT ( 'NONE', #121 ) ;
#95 = AXIS2_PLACEMENT_3D ( 'NONE', #19, #169, #135 ) ;
#96 = AXIS2_PLACEMENT_3D ( 'NONE', #153, #156, #28 ) ;
#97 = ORIENTED_EDGE ( 'NONE', *, *, #255, .F. ) ;
#98 = PRODUCT_DEFINITION_SHAPE ( 'NONE', 'NONE',  #148 ) ;
#99 = CARTESIAN_POINT ( 'NONE',  ( 0.000000000000000000, 0.000000000000000000, 1.500000000000000000 ) ) ;
#100 = AXIS2_PLACEMENT_3D ( 'NONE', #99, #39, #188 ) ;
#101 = DIRECTION ( 'NONE',  ( -1.000000000000000000, 0.000000000000000000, 0.000000000000000000 ) ) ;
#102 = CARTESIAN_POINT ( 'NONE',  ( -0.9000000000000000222, 0.000000000000000000, 160.0000000000000000 ) ) ;
#103 = CC_DESIGN_APPROVAL ( #123, ( #190 ) ) ;
#104 = ADVANCED_BREP_SHAPE_REPRESENTATION ( 'd856', ( #250, #225 ), #114 ) ;
#105 = PLANE ( 'NONE',  #48 ) ;
#106 = ORIENTED_EDGE ( 'NONE', *, *, #49, .T. ) ;
#107 = ADVANCED_FACE ( 'NONE', ( #4 ), #26, .F. ) ;
#108 = CYLINDRICAL_SURFACE ( 'NONE', #178, 2.000000000000000000 ) ;
#109 = CARTESIAN_POINT ( 'NONE',  ( 2.000000000000000000, 2.449293598294706414E-16, 1.500000000000000000 ) ) ;
#110 = ORIENTED_EDGE ( 'NONE', *, *, #222, .T. ) ;
#111 = EDGE_LOOP ( 'NONE', ( #133, #110 ) ) ;
#112 = PERSON_AND_ORGANIZATION_ROLE ( 'creator' ) ;
#113 = AXIS2_PLACEMENT_3D ( 'NONE', #145, #217, #187 ) ;
#114 =( GEOMETRIC_REPRESENTATION_CONTEXT ( 3 ) GLOBAL_UNCERTAINTY_ASSIGNED_CONTEXT ( ( #227 ) ) GLOBAL_UNIT_ASSIGNED_CONTEXT ( ( #191, #2, #36 ) ) REPRESENTATION_CONTEXT ( 'NONE', 'WORKASPACE' ) );
#115 = DATE_AND_TIME ( #73, #60 ) ;
#116 = CIRCLE ( 'NONE', #100, 2.000000000000000000 ) ;
#117 = APPROVAL_PERSON_ORGANIZATION ( #146, #253, #129 ) ;
#118 = DIRECTION ( 'NONE',  ( -1.000000000000000000, 0.000000000000000000, 0.000000000000000000 ) ) ;
#119 = ADVANCED_FACE ( 'NONE', ( #215 ), #50, .T. ) ;
#120 = EDGE_CURVE ( 'NONE', #15, #210, #247, .T. ) ;
#121 = CARTESIAN_POINT ( 'NONE',  ( -2.000000000000000000, 0.000000000000000000, 0.000000000000000000 ) ) ;
#122 = ORIENTED_EDGE ( 'NONE', *, *, #120, .T. ) ;
#123 = APPROVAL ( #155, 'NEURÈENÝ' ) ;
#124 = CARTESIAN_POINT ( 'NONE',  ( 0.9000000000000000222, 1.102182119232617788E-16, 160.0000000000000000 ) ) ;
#125 = CARTESIAN_POINT ( 'NONE',  ( -2.000000000000000000, 0.000000000000000000, 1.500000000000000000 ) ) ;
#126 = DIRECTION ( 'NONE',  ( 0.000000000000000000, 0.000000000000000000, 1.000000000000000000 ) ) ;
#127 = ORIENTED_EDGE ( 'NONE', *, *, #189, .T. ) ;
#128 = SECURITY_CLASSIFICATION_LEVEL ( 'unclassified' ) ;
#129 = APPROVAL_ROLE ( '' ) ;
#130 = VECTOR ( 'NONE', #42, 1000.000000000000000 ) ;
#131 = PERSON_AND_ORGANIZATION_ROLE ( 'creator' ) ;
#132 = CARTESIAN_POINT ( 'NONE',  ( 0.9000000000000000222, 1.102182119232617788E-16, 1.500000000000000000 ) ) ;
#133 = ORIENTED_EDGE ( 'NONE', *, *, #74, .T. ) ;
#134 = ADVANCED_FACE ( 'NONE', ( #8 ), #105, .T. ) ;
#135 = DIRECTION ( 'NONE',  ( 1.000000000000000000, 0.000000000000000000, 0.000000000000000000 ) ) ;
#136 = AXIS2_PLACEMENT_3D ( 'NONE', #83, #211, #239 ) ;
#137 = CC_DESIGN_PERSON_AND_ORGANIZATION_ASSIGNMENT ( #46, #212, ( #17 ) ) ;
#138 = DIRECTION ( 'NONE',  ( 1.000000000000000000, 0.000000000000000000, 0.000000000000000000 ) ) ;
#139 = CARTESIAN_POINT ( 'NONE',  ( 0.000000000000000000, 0.000000000000000000, 1.500000000000000000 ) ) ;
#140 = ORIENTED_EDGE ( 'NONE', *, *, #86, .T. ) ;
#141 = AXIS2_PLACEMENT_3D ( 'NONE', #84, #193, #231 ) ;
#142 = LINE ( 'NONE', #125, #184 ) ;
#143 = COORDINATED_UNIVERSAL_TIME_OFFSET ( 1, 0, .AHEAD. ) ;
#144 = VERTEX_POINT ( 'NONE', #102 ) ;
#145 = CARTESIAN_POINT ( 'NONE',  ( 0.000000000000000000, 0.000000000000000000, 1.500000000000000000 ) ) ;
#146 = PERSON_AND_ORGANIZATION ( #76, #81 ) ;
#147 = APPROVAL_ROLE ( '' ) ;
#148 = PRODUCT_DEFINITION ( 'NEZNÁMÝ', '', #17, #223 ) ;
#149 = CARTESIAN_POINT ( 'NONE',  ( 0.000000000000000000, 0.000000000000000000, 160.0000000000000000 ) ) ;
#150 = DIRECTION ( 'NONE',  ( -1.000000000000000000, 0.000000000000000000, 0.000000000000000000 ) ) ;
#151 = ORIENTED_EDGE ( 'NONE', *, *, #152, .F. ) ;
#152 = EDGE_CURVE ( 'NONE', #94, #177, #241, .T. ) ;
#153 = CARTESIAN_POINT ( 'NONE',  ( 0.000000000000000000, 0.000000000000000000, 160.0000000000000000 ) ) ;
#154 = ORIENTED_EDGE ( 'NONE', *, *, #49, .F. ) ;
#155 = APPROVAL_STATUS ( 'not_yet_approved' ) ;
#156 = DIRECTION ( 'NONE',  ( 0.000000000000000000, 0.000000000000000000, 1.000000000000000000 ) ) ;
#157 = ORIENTED_EDGE ( 'NONE', *, *, #222, .F. ) ;
#158 = CARTESIAN_POINT ( 'NONE',  ( -0.9000000000000000222, 0.000000000000000000, 160.0000000000000000 ) ) ;
#159 = CARTESIAN_POINT ( 'NONE',  ( 0.000000000000000000, 0.000000000000000000, 0.000000000000000000 ) ) ;
#160 = ORIENTED_EDGE ( 'NONE', *, *, #74, .F. ) ;
#161 = VECTOR ( 'NONE', #180, 1000.000000000000000 ) ;
#162 = APPROVAL_DATE_TIME ( #91, #43 ) ;
#163 = PLANE ( 'NONE',  #113 ) ;
#164 = EDGE_CURVE ( 'NONE', #144, #210, #1, .T. ) ;
#165 = APPROVAL_DATE_TIME ( #13, #253 ) ;
#166 = EDGE_LOOP ( 'NONE', ( #151, #219 ) ) ;
#167 = DIRECTION ( 'NONE',  ( 1.000000000000000000, 0.000000000000000000, 0.000000000000000000 ) ) ;
#168 = PRODUCT ( 'd856', 'd856', '', ( #33 ) ) ;
#169 = DIRECTION ( 'NONE',  ( 0.000000000000000000, 0.000000000000000000, 1.000000000000000000 ) ) ;
#170 = DIRECTION ( 'NONE',  ( -0.000000000000000000, -0.000000000000000000, -1.000000000000000000 ) ) ;
#171 = LOCAL_TIME ( 13, 54, 24.00000000000000000, #200 ) ;
#172 = ADVANCED_FACE ( 'NONE', ( #47 ), #108, .T. ) ;
#173 = PERSON_AND_ORGANIZATION ( #76, #81 ) ;
#174 = ORIENTED_EDGE ( 'NONE', *, *, #120, .F. ) ;
#175 = DATE_AND_TIME ( #234, #11 ) ;
#176 = DIRECTION ( 'NONE',  ( 0.000000000000000000, 0.000000000000000000, 1.000000000000000000 ) ) ;
#177 = VERTEX_POINT ( 'NONE', #7 ) ;
#178 = AXIS2_PLACEMENT_3D ( 'NONE', #66, #82, #150 ) ;
#179 = EDGE_CURVE ( 'NONE', #210, #15, #208, .T. ) ;
#180 = DIRECTION ( 'NONE',  ( -0.000000000000000000, -0.000000000000000000, -1.000000000000000000 ) ) ;
#181 = ORIENTED_EDGE ( 'NONE', *, *, #179, .F. ) ;
#182 = PERSON_AND_ORGANIZATION_ROLE ( 'design_owner' ) ;
#183 = APPROVAL_STATUS ( 'not_yet_approved' ) ;
#184 = VECTOR ( 'NONE', #207, 1000.000000000000000 ) ;
#185 = CALENDAR_DATE ( 2023, 12, 2 ) ;
#186 = CIRCLE ( 'NONE', #96, 0.9000000000000000222 ) ;
#187 = DIRECTION ( 'NONE',  ( 1.000000000000000000, 0.000000000000000000, -0.000000000000000000 ) ) ;
#188 = DIRECTION ( 'NONE',  ( 1.000000000000000000, 0.000000000000000000, 0.000000000000000000 ) ) ;
#189 = EDGE_CURVE ( 'NONE', #44, #15, #87, .T. ) ;
#190 = SECURITY_CLASSIFICATION ( '', '', #128 ) ;
#191 =( LENGTH_UNIT ( ) NAMED_UNIT ( * ) SI_UNIT ( .MILLI., .METRE. ) );
#192 = CARTESIAN_POINT ( 'NONE',  ( 0.000000000000000000, 0.000000000000000000, 1.500000000000000000 ) ) ;
#193 = DIRECTION ( 'NONE',  ( 0.000000000000000000, 0.000000000000000000, 1.000000000000000000 ) ) ;
#194 = ORIENTED_EDGE ( 'NONE', *, *, #235, .T. ) ;
#195 = DIRECTION ( 'NONE',  ( 1.000000000000000000, 0.000000000000000000, 0.000000000000000000 ) ) ;
#196 = DIRECTION ( 'NONE',  ( 0.000000000000000000, 0.000000000000000000, 1.000000000000000000 ) ) ;
#197 = SHAPE_DEFINITION_REPRESENTATION ( #98, #104 ) ;
#198 = PERSON_AND_ORGANIZATION ( #76, #81 ) ;
#199 = ORIENTED_EDGE ( 'NONE', *, *, #235, .F. ) ;
#200 = COORDINATED_UNIVERSAL_TIME_OFFSET ( 1, 0, .AHEAD. ) ;
#201 = FACE_OUTER_BOUND ( 'NONE', #5, .T. ) ;
#202 = APPLICATION_CONTEXT ( 'configuration controlled 3d designs of mechanical parts and assemblies' ) ;
#203 = EDGE_LOOP ( 'NONE', ( #157, #127, #122, #18 ) ) ;
#204 = ORIENTED_EDGE ( 'NONE', *, *, #25, .T. ) ;
#205 = CIRCLE ( 'NONE', #95, 0.9000000000000000222 ) ;
#206 = CC_DESIGN_DATE_AND_TIME_ASSIGNMENT ( #175, #3, ( #190 ) ) ;
#207 = DIRECTION ( 'NONE',  ( -0.000000000000000000, -0.000000000000000000, -1.000000000000000000 ) ) ;
#208 = CIRCLE ( 'NONE', #248, 0.9000000000000000222 ) ;
#209 = CARTESIAN_POINT ( 'NONE',  ( 0.000000000000000000, 0.000000000000000000, 0.000000000000000000 ) ) ;
#210 = VERTEX_POINT ( 'NONE', #67 ) ;
#211 = DIRECTION ( 'NONE',  ( -0.000000000000000000, -0.000000000000000000, -1.000000000000000000 ) ) ;
#212 = PERSON_AND_ORGANIZATION_ROLE ( 'design_supplier' ) ;
#213 = DIRECTION ( 'NONE',  ( 0.000000000000000000, 0.000000000000000000, 1.000000000000000000 ) ) ;
#214 = APPLICATION_CONTEXT ( 'configuration controlled 3d designs of mechanical parts and assemblies' ) ;
#215 = FACE_OUTER_BOUND ( 'NONE', #232, .T. ) ;
#216 = ORIENTED_EDGE ( 'NONE', *, *, #189, .F. ) ;
#217 = DIRECTION ( 'NONE',  ( 0.000000000000000000, 0.000000000000000000, 1.000000000000000000 ) ) ;
#218 = AXIS2_PLACEMENT_3D ( 'NONE', #249, #92, #118 ) ;
#219 = ORIENTED_EDGE ( 'NONE', *, *, #86, .F. ) ;
#220 = CC_DESIGN_APPROVAL ( #43, ( #148 ) ) ;
#221 = EDGE_LOOP ( 'NONE', ( #181, #174 ) ) ;
#222 = EDGE_CURVE ( 'NONE', #44, #144, #186, .T. ) ;
#223 = DESIGN_CONTEXT ( 'detailed design', #214, 'design' ) ;
#224 = CARTESIAN_POINT ( 'NONE',  ( 0.9000000000000000222, 1.102182119232617788E-16, 160.0000000000000000 ) ) ;
#225 = AXIS2_PLACEMENT_3D ( 'NONE', #159, #196, #75 ) ;
#226 = CC_DESIGN_DATE_AND_TIME_ASSIGNMENT ( #115, #53, ( #148 ) ) ;
#227 = UNCERTAINTY_MEASURE_WITH_UNIT (LENGTH_MEASURE( 1.000000000000000082E-05 ), #191, 'distance_accuracy_value', 'NONE');
#228 = APPROVAL_PERSON_ORGANIZATION ( #230, #123, #238 ) ;
#229 = DIRECTION ( 'NONE',  ( 0.000000000000000000, 0.000000000000000000, 1.000000000000000000 ) ) ;
#230 = PERSON_AND_ORGANIZATION ( #76, #81 ) ;
#231 = DIRECTION ( 'NONE',  ( 1.000000000000000000, 0.000000000000000000, 0.000000000000000000 ) ) ;
#232 = EDGE_LOOP ( 'NONE', ( #216, #160, #31, #24 ) ) ;
#233 = AXIS2_PLACEMENT_3D ( 'NONE', #209, #23, #68 ) ;
#234 = CALENDAR_DATE ( 2023, 12, 2 ) ;
#235 = EDGE_CURVE ( 'NONE', #56, #94, #142, .T. ) ;
#236 = VECTOR ( 'NONE', #170, 1000.000000000000000 ) ;
#237 = EDGE_LOOP ( 'NONE', ( #106, #204 ) ) ;
#238 = APPROVAL_ROLE ( '' ) ;
#239 = DIRECTION ( 'NONE',  ( -1.000000000000000000, 0.000000000000000000, 0.000000000000000000 ) ) ;
#240 = COORDINATED_UNIVERSAL_TIME_OFFSET ( 1, 0, .AHEAD. ) ;
#241 = CIRCLE ( 'NONE', #141, 2.000000000000000000 ) ;
#242 = DIRECTION ( 'NONE',  ( 0.000000000000000000, 0.000000000000000000, 1.000000000000000000 ) ) ;
#243 = PRODUCT_RELATED_PRODUCT_CATEGORY ( 'detail', '', ( #168 ) ) ;
#244 = COORDINATED_UNIVERSAL_TIME_OFFSET ( 1, 0, .AHEAD. ) ;
#245 = PERSON_AND_ORGANIZATION ( #76, #81 ) ;
#246 = ORIENTED_EDGE ( 'NONE', *, *, #152, .T. ) ;
#247 = CIRCLE ( 'NONE', #16, 0.9000000000000000222 ) ;
#248 = AXIS2_PLACEMENT_3D ( 'NONE', #139, #229, #138 ) ;
#249 = CARTESIAN_POINT ( 'NONE',  ( 0.000000000000000000, 0.000000000000000000, 1.500000000000000000 ) ) ;
#250 = MANIFOLD_SOLID_BREP ( 'Pøidat vysunutím3', #251 ) ;
#251 = CLOSED_SHELL ( 'NONE', ( #78, #172, #35, #38, #107, #119, #134 ) ) ;
#252 = FACE_OUTER_BOUND ( 'NONE', #203, .T. ) ;
#253 = APPROVAL ( #52, 'NEURÈENÝ' ) ;
#254 = CIRCLE ( 'NONE', #37, 2.000000000000000000 ) ;
#255 = EDGE_CURVE ( 'NONE', #14, #177, #40, .T. ) ;
ENDSEC;
END-ISO-10303-21;
