ISO-10303-21;
HEADER;
FILE_DESCRIPTION (( 'STEP AP203' ),
    '1' );
FILE_NAME ('b842.STEP',
    '2023-02-12T12:17:27',
    ( '' ),
    ( '' ),
    'SwSTEP 2.0',
    'SolidWorks 2019',
    '' );
FILE_SCHEMA (( 'CONFIG_CONTROL_DESIGN' ));
ENDSEC;

DATA;
#1 = CALENDAR_DATE ( 2023, 12, 2 ) ;
#2 = CARTESIAN_POINT ( 'NONE',  ( 6.000000000000000888, 7.347880794884120722E-16, 5.000000000000000000 ) ) ;
#3 = DIRECTION ( 'NONE',  ( 1.000000000000000000, 0.000000000000000000, 0.000000000000000000 ) ) ;
#4 = CARTESIAN_POINT ( 'NONE',  ( 3.100000000000000089, 3.796405077356794918E-16, 100.0000000000000000 ) ) ;
#5 = CC_DESIGN_PERSON_AND_ORGANIZATION_ASSIGNMENT ( #119, #99, ( #223 ) ) ;
#6 = EDGE_LOOP ( 'NONE', ( #113, #143, #48, #90 ) ) ;
#7 = ORIENTED_EDGE ( 'NONE', *, *, #107, .F. ) ;
#8 = CIRCLE ( 'NONE', #164, 6.000000000000000888 ) ;
#9 = VERTEX_POINT ( 'NONE', #146 ) ;
#10 = EDGE_CURVE ( 'NONE', #244, #69, #233, .T. ) ;
#11 = DIRECTION ( 'NONE',  ( -0.000000000000000000, -0.000000000000000000, -1.000000000000000000 ) ) ;
#12 = CARTESIAN_POINT ( 'NONE',  ( -6.000000000000000888, 0.000000000000000000, 5.000000000000000000 ) ) ;
#13 = PLANE ( 'NONE',  #236 ) ;
#14 = CC_DESIGN_PERSON_AND_ORGANIZATION_ASSIGNMENT ( #22, #81, ( #50 ) ) ;
#15 = VERTEX_POINT ( 'NONE', #117 ) ;
#16 = APPROVAL_ROLE ( '' ) ;
#17 = FACE_OUTER_BOUND ( 'NONE', #6, .T. ) ;
#18 = DIRECTION ( 'NONE',  ( 1.000000000000000000, 0.000000000000000000, -0.000000000000000000 ) ) ;
#19 = PERSON_AND_ORGANIZATION ( #121, #72 ) ;
#20 = SECURITY_CLASSIFICATION_LEVEL ( 'unclassified' ) ;
#21 = EDGE_CURVE ( 'NONE', #244, #134, #246, .T. ) ;
#22 = PERSON_AND_ORGANIZATION ( #121, #72 ) ;
#23 = VECTOR ( 'NONE', #194, 1000.000000000000000 ) ;
#24 =( NAMED_UNIT ( * ) SI_UNIT ( $, .STERADIAN. ) SOLID_ANGLE_UNIT ( ) );
#25 = COORDINATED_UNIVERSAL_TIME_OFFSET ( 1, 0, .AHEAD. ) ;
#26 = CYLINDRICAL_SURFACE ( 'NONE', #179, 3.100000000000000089 ) ;
#27 = ORIENTED_EDGE ( 'NONE', *, *, #60, .F. ) ;
#28 = CYLINDRICAL_SURFACE ( 'NONE', #83, 6.000000000000000888 ) ;
#29 = CALENDAR_DATE ( 2023, 12, 2 ) ;
#30 = ORIENTED_EDGE ( 'NONE', *, *, #207, .T. ) ;
#31 = ORIENTED_EDGE ( 'NONE', *, *, #158, .T. ) ;
#32 = DIRECTION ( 'NONE',  ( -0.000000000000000000, -0.000000000000000000, -1.000000000000000000 ) ) ;
#33 = LINE ( 'NONE', #131, #177 ) ;
#34 = APPROVAL ( #53, 'NEURÈENÝ' ) ;
#35 = EDGE_LOOP ( 'NONE', ( #175, #7 ) ) ;
#36 = CC_DESIGN_APPROVAL ( #34, ( #130 ) ) ;
#37 = DATE_TIME_ROLE ( 'creation_date' ) ;
#38 = DIRECTION ( 'NONE',  ( 0.000000000000000000, 0.000000000000000000, 1.000000000000000000 ) ) ;
#39 = ORIENTED_EDGE ( 'NONE', *, *, #158, .F. ) ;
#40 = ADVANCED_FACE ( 'NONE', ( #17 ), #238, .T. ) ;
#41 = DATE_AND_TIME ( #1, #92 ) ;
#42 = APPROVAL_STATUS ( 'not_yet_approved' ) ;
#43 = ADVANCED_FACE ( 'NONE', ( #95 ), #13, .F. ) ;
#44 = MECHANICAL_CONTEXT ( 'NONE', #173, 'mechanical' ) ;
#45 = CIRCLE ( 'NONE', #132, 3.100000000000000089 ) ;
#46 = PERSON_AND_ORGANIZATION_ROLE ( 'creator' ) ;
#47 = CARTESIAN_POINT ( 'NONE',  ( 0.000000000000000000, 0.000000000000000000, 5.000000000000000000 ) ) ;
#48 = ORIENTED_EDGE ( 'NONE', *, *, #107, .T. ) ;
#49 = DIRECTION ( 'NONE',  ( 0.000000000000000000, 0.000000000000000000, 1.000000000000000000 ) ) ;
#50 = SECURITY_CLASSIFICATION ( '', '', #20 ) ;
#51 = APPROVAL_PERSON_ORGANIZATION ( #75, #34, #137 ) ;
#52 = ORIENTED_EDGE ( 'NONE', *, *, #10, .T. ) ;
#53 = APPROVAL_STATUS ( 'not_yet_approved' ) ;
#54 = DIRECTION ( 'NONE',  ( 1.000000000000000000, 0.000000000000000000, 0.000000000000000000 ) ) ;
#55 = APPROVAL ( #42, 'NEURÈENÝ' ) ;
#56 = CIRCLE ( 'NONE', #63, 6.000000000000000888 ) ;
#57 = CALENDAR_DATE ( 2023, 12, 2 ) ;
#58 = DIRECTION ( 'NONE',  ( 1.000000000000000000, 0.000000000000000000, -0.000000000000000000 ) ) ;
#59 = COORDINATED_UNIVERSAL_TIME_OFFSET ( 1, 0, .AHEAD. ) ;
#60 = EDGE_CURVE ( 'NONE', #134, #79, #94, .T. ) ;
#61 = DIRECTION ( 'NONE',  ( 0.000000000000000000, 0.000000000000000000, 1.000000000000000000 ) ) ;
#62 = APPROVAL_ROLE ( '' ) ;
#63 = AXIS2_PLACEMENT_3D ( 'NONE', #147, #38, #198 ) ;
#64 = EDGE_CURVE ( 'NONE', #79, #69, #56, .T. ) ;
#65 = CALENDAR_DATE ( 2023, 12, 2 ) ;
#66 = CC_DESIGN_PERSON_AND_ORGANIZATION_ASSIGNMENT ( #123, #101, ( #223 ) ) ;
#67 = APPROVAL_DATE_TIME ( #205, #34 ) ;
#68 = COORDINATED_UNIVERSAL_TIME_OFFSET ( 1, 0, .AHEAD. ) ;
#69 = VERTEX_POINT ( 'NONE', #253 ) ;
#70 = CARTESIAN_POINT ( 'NONE',  ( 0.000000000000000000, 0.000000000000000000, 100.0000000000000000 ) ) ;
#71 = ORIENTED_EDGE ( 'NONE', *, *, #60, .T. ) ;
#72 = ORGANIZATION ( 'NEURÈENÝ', 'NEURÈENÝ', '' ) ;
#73 = EDGE_LOOP ( 'NONE', ( #135, #192 ) ) ;
#74 = ORIENTED_EDGE ( 'NONE', *, *, #21, .F. ) ;
#75 = PERSON_AND_ORGANIZATION ( #121, #72 ) ;
#76 = PRODUCT_RELATED_PRODUCT_CATEGORY ( 'detail', '', ( #213 ) ) ;
#77 = DIRECTION ( 'NONE',  ( 0.000000000000000000, 0.000000000000000000, 1.000000000000000000 ) ) ;
#78 = DIRECTION ( 'NONE',  ( 0.000000000000000000, 0.000000000000000000, 1.000000000000000000 ) ) ;
#79 = VERTEX_POINT ( 'NONE', #239 ) ;
#80 = DIRECTION ( 'NONE',  ( 1.000000000000000000, 0.000000000000000000, 0.000000000000000000 ) ) ;
#81 = PERSON_AND_ORGANIZATION_ROLE ( 'classification_officer' ) ;
#82 = EDGE_CURVE ( 'NONE', #191, #231, #203, .T. ) ;
#83 = AXIS2_PLACEMENT_3D ( 'NONE', #111, #11, #115 ) ;
#84 = APPROVAL_DATE_TIME ( #41, #243 ) ;
#85 = CYLINDRICAL_SURFACE ( 'NONE', #195, 6.000000000000000888 ) ;
#86 = FACE_OUTER_BOUND ( 'NONE', #176, .T. ) ;
#87 = APPROVAL_PERSON_ORGANIZATION ( #106, #55, #16 ) ;
#88 = EDGE_LOOP ( 'NONE', ( #157, #39 ) ) ;
#89 = AXIS2_PLACEMENT_3D ( 'NONE', #241, #153, #228 ) ;
#90 = ORIENTED_EDGE ( 'NONE', *, *, #138, .F. ) ;
#91 = CARTESIAN_POINT ( 'NONE',  ( 3.100000000000000089, 3.796405077356794918E-16, 100.0000000000000000 ) ) ;
#92 = LOCAL_TIME ( 13, 17, 27.00000000000000000, #59 ) ;
#93 = FACE_OUTER_BOUND ( 'NONE', #73, .T. ) ;
#94 = LINE ( 'NONE', #12, #23 ) ;
#95 = FACE_OUTER_BOUND ( 'NONE', #88, .T. ) ;
#96 = CARTESIAN_POINT ( 'NONE',  ( 6.000000000000000888, 7.347880794884120722E-16, 5.000000000000000000 ) ) ;
#97 = APPROVAL_DATE_TIME ( #166, #55 ) ;
#98 = CARTESIAN_POINT ( 'NONE',  ( 0.000000000000000000, 0.000000000000000000, 5.000000000000000000 ) ) ;
#99 = PERSON_AND_ORGANIZATION_ROLE ( 'design_supplier' ) ;
#100 = CARTESIAN_POINT ( 'NONE',  ( 0.000000000000000000, 0.000000000000000000, 0.000000000000000000 ) ) ;
#101 = PERSON_AND_ORGANIZATION_ROLE ( 'creator' ) ;
#102 = ADVANCED_FACE ( 'NONE', ( #180, #254 ), #222, .T. ) ;
#103 = DATE_AND_TIME ( #57, #199 ) ;
#104 = APPLICATION_PROTOCOL_DEFINITION ( 'international standard', 'config_control_design', 1994, #173 ) ;
#105 = CIRCLE ( 'NONE', #208, 3.100000000000000089 ) ;
#106 = PERSON_AND_ORGANIZATION ( #121, #72 ) ;
#107 = EDGE_CURVE ( 'NONE', #15, #9, #105, .T. ) ;
#108 = CARTESIAN_POINT ( 'NONE',  ( 0.000000000000000000, 0.000000000000000000, 100.0000000000000000 ) ) ;
#109 = CLOSED_SHELL ( 'NONE', ( #40, #193, #139, #102, #43, #181, #124 ) ) ;
#110 = EDGE_LOOP ( 'NONE', ( #30, #214 ) ) ;
#111 = CARTESIAN_POINT ( 'NONE',  ( 0.000000000000000000, 0.000000000000000000, 5.000000000000000000 ) ) ;
#112 = CC_DESIGN_PERSON_AND_ORGANIZATION_ASSIGNMENT ( #225, #46, ( #130 ) ) ;
#113 = ORIENTED_EDGE ( 'NONE', *, *, #82, .F. ) ;
#114 = PERSON_AND_ORGANIZATION_ROLE ( 'design_owner' ) ;
#115 = DIRECTION ( 'NONE',  ( -1.000000000000000000, 0.000000000000000000, 0.000000000000000000 ) ) ;
#116 = CARTESIAN_POINT ( 'NONE',  ( 0.000000000000000000, 0.000000000000000000, 100.0000000000000000 ) ) ;
#117 = CARTESIAN_POINT ( 'NONE',  ( 3.100000000000000089, 3.796405077356794918E-16, 5.000000000000000000 ) ) ;
#118 = CARTESIAN_POINT ( 'NONE',  ( 0.000000000000000000, 0.000000000000000000, 100.0000000000000000 ) ) ;
#119 = PERSON_AND_ORGANIZATION ( #121, #72 ) ;
#120 = DIRECTION ( 'NONE',  ( 1.000000000000000000, 0.000000000000000000, 0.000000000000000000 ) ) ;
#121 = PERSON ( 'NEURÈENÝ', 'NEURÈENÝ', 'NEURÈENÝ', ('NEURÈENÝ'), ('NEURÈENÝ'), ('NEURÈENÝ') ) ;
#122 = APPLICATION_CONTEXT ( 'configuration controlled 3d designs of mechanical parts and assemblies' ) ;
#123 = PERSON_AND_ORGANIZATION ( #121, #72 ) ;
#124 = ADVANCED_FACE ( 'NONE', ( #93 ), #183, .T. ) ;
#125 = VECTOR ( 'NONE', #200, 1000.000000000000000 ) ;
#126 = CC_DESIGN_APPROVAL ( #55, ( #50 ) ) ;
#127 = DIRECTION ( 'NONE',  ( 0.000000000000000000, 0.000000000000000000, 1.000000000000000000 ) ) ;
#128 =( LENGTH_UNIT ( ) NAMED_UNIT ( * ) SI_UNIT ( .MILLI., .METRE. ) );
#129 = CC_DESIGN_APPROVAL ( #243, ( #223 ) ) ;
#130 = PRODUCT_DEFINITION ( 'NEZNÁMÝ', '', #223, #196 ) ;
#131 = CARTESIAN_POINT ( 'NONE',  ( -3.100000000000000089, 0.000000000000000000, 100.0000000000000000 ) ) ;
#132 = AXIS2_PLACEMENT_3D ( 'NONE', #215, #234, #54 ) ;
#133 = EDGE_LOOP ( 'NONE', ( #212, #232, #141, #209 ) ) ;
#134 = VERTEX_POINT ( 'NONE', #144 ) ;
#135 = ORIENTED_EDGE ( 'NONE', *, *, #185, .T. ) ;
#136 = CARTESIAN_POINT ( 'NONE',  ( -3.100000000000000089, 0.000000000000000000, 100.0000000000000000 ) ) ;
#137 = APPROVAL_ROLE ( '' ) ;
#138 = EDGE_CURVE ( 'NONE', #231, #9, #33, .T. ) ;
#139 = ADVANCED_FACE ( 'NONE', ( #227 ), #85, .T. ) ;
#140 = ORIENTED_EDGE ( 'NONE', *, *, #207, .F. ) ;
#141 = ORIENTED_EDGE ( 'NONE', *, *, #138, .T. ) ;
#142 = AXIS2_PLACEMENT_3D ( 'NONE', #118, #182, #167 ) ;
#143 = ORIENTED_EDGE ( 'NONE', *, *, #202, .T. ) ;
#144 = CARTESIAN_POINT ( 'NONE',  ( -6.000000000000000888, 0.000000000000000000, 5.000000000000000000 ) ) ;
#145 = SHAPE_DEFINITION_REPRESENTATION ( #156, #226 ) ;
#146 = CARTESIAN_POINT ( 'NONE',  ( -3.100000000000000089, 0.000000000000000000, 5.000000000000000000 ) ) ;
#147 = CARTESIAN_POINT ( 'NONE',  ( 0.000000000000000000, 0.000000000000000000, 0.000000000000000000 ) ) ;
#148 = AXIS2_PLACEMENT_3D ( 'NONE', #221, #78, #18 ) ;
#149 = CARTESIAN_POINT ( 'NONE',  ( 0.000000000000000000, 0.000000000000000000, 0.000000000000000000 ) ) ;
#150 = DIRECTION ( 'NONE',  ( -0.000000000000000000, -0.000000000000000000, -1.000000000000000000 ) ) ;
#151 = CC_DESIGN_DATE_AND_TIME_ASSIGNMENT ( #103, #197, ( #50 ) ) ;
#152 = ORIENTED_EDGE ( 'NONE', *, *, #10, .F. ) ;
#153 = DIRECTION ( 'NONE',  ( 0.000000000000000000, 0.000000000000000000, 1.000000000000000000 ) ) ;
#154 = AXIS2_PLACEMENT_3D ( 'NONE', #70, #49, #3 ) ;
#155 = EDGE_LOOP ( 'NONE', ( #152, #140, #71, #219 ) ) ;
#156 = PRODUCT_DEFINITION_SHAPE ( 'NONE', 'NONE',  #130 ) ;
#157 = ORIENTED_EDGE ( 'NONE', *, *, #64, .F. ) ;
#158 = EDGE_CURVE ( 'NONE', #69, #79, #255, .T. ) ;
#159 = APPLICATION_PROTOCOL_DEFINITION ( 'international standard', 'config_control_design', 1994, #122 ) ;
#160 = DIRECTION ( 'NONE',  ( 1.000000000000000000, 0.000000000000000000, -0.000000000000000000 ) ) ;
#161 = DIRECTION ( 'NONE',  ( 1.000000000000000000, 0.000000000000000000, 0.000000000000000000 ) ) ;
#162 = CC_DESIGN_DATE_AND_TIME_ASSIGNMENT ( #230, #37, ( #130 ) ) ;
#163 = UNCERTAINTY_MEASURE_WITH_UNIT (LENGTH_MEASURE( 1.000000000000000082E-05 ), #128, 'distance_accuracy_value', 'NONE');
#164 = AXIS2_PLACEMENT_3D ( 'NONE', #249, #77, #161 ) ;
#165 = DIRECTION ( 'NONE',  ( 1.000000000000000000, 0.000000000000000000, 0.000000000000000000 ) ) ;
#166 = DATE_AND_TIME ( #65, #174 ) ;
#167 = DIRECTION ( 'NONE',  ( -1.000000000000000000, 0.000000000000000000, 0.000000000000000000 ) ) ;
#168 = DIRECTION ( 'NONE',  ( 0.000000000000000000, 0.000000000000000000, 1.000000000000000000 ) ) ;
#169 =( GEOMETRIC_REPRESENTATION_CONTEXT ( 3 ) GLOBAL_UNCERTAINTY_ASSIGNED_CONTEXT ( ( #163 ) ) GLOBAL_UNIT_ASSIGNED_CONTEXT ( ( #128, #204, #24 ) ) REPRESENTATION_CONTEXT ( 'NONE', 'WORKASPACE' ) );
#170 = COORDINATED_UNIVERSAL_TIME_OFFSET ( 1, 0, .AHEAD. ) ;
#171 = CALENDAR_DATE ( 2023, 12, 2 ) ;
#172 = DIRECTION ( 'NONE',  ( -1.000000000000000000, 0.000000000000000000, 0.000000000000000000 ) ) ;
#173 = APPLICATION_CONTEXT ( 'configuration controlled 3d designs of mechanical parts and assemblies' ) ;
#174 = LOCAL_TIME ( 13, 17, 27.00000000000000000, #170 ) ;
#175 = ORIENTED_EDGE ( 'NONE', *, *, #211, .F. ) ;
#176 = EDGE_LOOP ( 'NONE', ( #74, #52, #31, #27 ) ) ;
#177 = VECTOR ( 'NONE', #150, 1000.000000000000000 ) ;
#178 = LINE ( 'NONE', #91, #240 ) ;
#179 = AXIS2_PLACEMENT_3D ( 'NONE', #108, #242, #190 ) ;
#180 = FACE_BOUND ( 'NONE', #35, .T. ) ;
#181 = ADVANCED_FACE ( 'NONE', ( #206 ), #26, .T. ) ;
#182 = DIRECTION ( 'NONE',  ( -0.000000000000000000, -0.000000000000000000, -1.000000000000000000 ) ) ;
#183 = PLANE ( 'NONE',  #245 ) ;
#184 = COORDINATED_UNIVERSAL_TIME_OFFSET ( 1, 0, .AHEAD. ) ;
#185 = EDGE_CURVE ( 'NONE', #231, #191, #235, .T. ) ;
#186 = APPROVAL_STATUS ( 'not_yet_approved' ) ;
#187 = DIRECTION ( 'NONE',  ( 1.000000000000000000, 0.000000000000000000, 0.000000000000000000 ) ) ;
#188 = AXIS2_PLACEMENT_3D ( 'NONE', #116, #168, #80 ) ;
#189 = MANIFOLD_SOLID_BREP ( 'Pøidat vysunutím3', #109 ) ;
#190 = DIRECTION ( 'NONE',  ( -1.000000000000000000, 0.000000000000000000, 0.000000000000000000 ) ) ;
#191 = VERTEX_POINT ( 'NONE', #4 ) ;
#192 = ORIENTED_EDGE ( 'NONE', *, *, #82, .T. ) ;
#193 = ADVANCED_FACE ( 'NONE', ( #86 ), #28, .T. ) ;
#194 = DIRECTION ( 'NONE',  ( -0.000000000000000000, -0.000000000000000000, -1.000000000000000000 ) ) ;
#195 = AXIS2_PLACEMENT_3D ( 'NONE', #47, #210, #172 ) ;
#196 = DESIGN_CONTEXT ( 'detailed design', #122, 'design' ) ;
#197 = DATE_TIME_ROLE ( 'classification_date' ) ;
#198 = DIRECTION ( 'NONE',  ( 1.000000000000000000, 0.000000000000000000, 0.000000000000000000 ) ) ;
#199 = LOCAL_TIME ( 13, 17, 27.00000000000000000, #184 ) ;
#200 = DIRECTION ( 'NONE',  ( -0.000000000000000000, -0.000000000000000000, -1.000000000000000000 ) ) ;
#201 = CC_DESIGN_SECURITY_CLASSIFICATION ( #50, ( #223 ) ) ;
#202 = EDGE_CURVE ( 'NONE', #191, #15, #178, .T. ) ;
#203 = CIRCLE ( 'NONE', #188, 3.100000000000000089 ) ;
#204 =( NAMED_UNIT ( * ) PLANE_ANGLE_UNIT ( ) SI_UNIT ( $, .RADIAN. ) );
#205 = DATE_AND_TIME ( #171, #229 ) ;
#206 = FACE_OUTER_BOUND ( 'NONE', #133, .T. ) ;
#207 = EDGE_CURVE ( 'NONE', #134, #244, #8, .T. ) ;
#208 = AXIS2_PLACEMENT_3D ( 'NONE', #98, #216, #165 ) ;
#209 = ORIENTED_EDGE ( 'NONE', *, *, #211, .T. ) ;
#210 = DIRECTION ( 'NONE',  ( -0.000000000000000000, -0.000000000000000000, -1.000000000000000000 ) ) ;
#211 = EDGE_CURVE ( 'NONE', #9, #15, #45, .T. ) ;
#212 = ORIENTED_EDGE ( 'NONE', *, *, #202, .F. ) ;
#213 = PRODUCT ( 'b842', 'b842', '', ( #44 ) ) ;
#214 = ORIENTED_EDGE ( 'NONE', *, *, #21, .T. ) ;
#215 = CARTESIAN_POINT ( 'NONE',  ( 0.000000000000000000, 0.000000000000000000, 5.000000000000000000 ) ) ;
#216 = DIRECTION ( 'NONE',  ( 0.000000000000000000, 0.000000000000000000, 1.000000000000000000 ) ) ;
#217 = DIRECTION ( 'NONE',  ( 0.000000000000000000, 0.000000000000000000, 1.000000000000000000 ) ) ;
#218 = LOCAL_TIME ( 13, 17, 27.00000000000000000, #68 ) ;
#219 = ORIENTED_EDGE ( 'NONE', *, *, #64, .T. ) ;
#220 = AXIS2_PLACEMENT_3D ( 'NONE', #252, #217, #120 ) ;
#221 = CARTESIAN_POINT ( 'NONE',  ( 0.000000000000000000, 0.000000000000000000, 5.000000000000000000 ) ) ;
#222 = PLANE ( 'NONE',  #148 ) ;
#223 = PRODUCT_DEFINITION_FORMATION_WITH_SPECIFIED_SOURCE ( 'LIBOVOLNÝ', '', #213, .NOT_KNOWN. ) ;
#224 = CC_DESIGN_PERSON_AND_ORGANIZATION_ASSIGNMENT ( #247, #114, ( #213 ) ) ;
#225 = PERSON_AND_ORGANIZATION ( #121, #72 ) ;
#226 = ADVANCED_BREP_SHAPE_REPRESENTATION ( 'b842', ( #189, #250 ), #169 ) ;
#227 = FACE_OUTER_BOUND ( 'NONE', #155, .T. ) ;
#228 = DIRECTION ( 'NONE',  ( 1.000000000000000000, 0.000000000000000000, 0.000000000000000000 ) ) ;
#229 = LOCAL_TIME ( 13, 17, 27.00000000000000000, #25 ) ;
#230 = DATE_AND_TIME ( #29, #218 ) ;
#231 = VERTEX_POINT ( 'NONE', #136 ) ;
#232 = ORIENTED_EDGE ( 'NONE', *, *, #185, .F. ) ;
#233 = LINE ( 'NONE', #96, #125 ) ;
#234 = DIRECTION ( 'NONE',  ( 0.000000000000000000, 0.000000000000000000, 1.000000000000000000 ) ) ;
#235 = CIRCLE ( 'NONE', #154, 3.100000000000000089 ) ;
#236 = AXIS2_PLACEMENT_3D ( 'NONE', #100, #251, #160 ) ;
#237 = CARTESIAN_POINT ( 'NONE',  ( 0.000000000000000000, 0.000000000000000000, 100.0000000000000000 ) ) ;
#238 = CYLINDRICAL_SURFACE ( 'NONE', #142, 3.100000000000000089 ) ;
#239 = CARTESIAN_POINT ( 'NONE',  ( -6.000000000000000888, 0.000000000000000000, 0.000000000000000000 ) ) ;
#240 = VECTOR ( 'NONE', #32, 1000.000000000000000 ) ;
#241 = CARTESIAN_POINT ( 'NONE',  ( 0.000000000000000000, 0.000000000000000000, 0.000000000000000000 ) ) ;
#242 = DIRECTION ( 'NONE',  ( -0.000000000000000000, -0.000000000000000000, -1.000000000000000000 ) ) ;
#243 = APPROVAL ( #186, 'NEURÈENÝ' ) ;
#244 = VERTEX_POINT ( 'NONE', #2 ) ;
#245 = AXIS2_PLACEMENT_3D ( 'NONE', #237, #61, #58 ) ;
#246 = CIRCLE ( 'NONE', #220, 6.000000000000000888 ) ;
#247 = PERSON_AND_ORGANIZATION ( #121, #72 ) ;
#248 = APPROVAL_PERSON_ORGANIZATION ( #19, #243, #62 ) ;
#249 = CARTESIAN_POINT ( 'NONE',  ( 0.000000000000000000, 0.000000000000000000, 5.000000000000000000 ) ) ;
#250 = AXIS2_PLACEMENT_3D ( 'NONE', #149, #127, #187 ) ;
#251 = DIRECTION ( 'NONE',  ( 0.000000000000000000, 0.000000000000000000, 1.000000000000000000 ) ) ;
#252 = CARTESIAN_POINT ( 'NONE',  ( 0.000000000000000000, 0.000000000000000000, 5.000000000000000000 ) ) ;
#253 = CARTESIAN_POINT ( 'NONE',  ( 6.000000000000000888, 7.347880794884120722E-16, 0.000000000000000000 ) ) ;
#254 = FACE_OUTER_BOUND ( 'NONE', #110, .T. ) ;
#255 = CIRCLE ( 'NONE', #89, 6.000000000000000888 ) ;
ENDSEC;
END-ISO-10303-21;
