ISO-10303-21;
HEADER;
FILE_DESCRIPTION (( 'STEP AP203' ),
    '1' );
FILE_NAME ('510d.STEP',
    '2022-07-07T09:34:12',
    ( '' ),
    ( '' ),
    'SwSTEP 2.0',
    'SolidWorks 2019',
    '' );
FILE_SCHEMA (( 'CONFIG_CONTROL_DESIGN' ));
ENDSEC;

DATA;
#1 = DIRECTION ( 'NONE',  ( 1.000000000000000000, 0.000000000000000000, 0.000000000000000000 ) ) ;
#2 = AXIS2_PLACEMENT_3D ( 'NONE', #121, #175, #148 ) ;
#3 = APPROVAL_PERSON_ORGANIZATION ( #160, #248, #138 ) ;
#4 = CARTESIAN_POINT ( 'NONE',  ( -10.20000000000000107, 1.249139735130300365E-15, 8.200000000000013500 ) ) ;
#5 = DIRECTION ( 'NONE',  ( 0.000000000000000000, 0.000000000000000000, 1.000000000000000000 ) ) ;
#6 = DIRECTION ( 'NONE',  ( 0.000000000000000000, 0.000000000000000000, 1.000000000000000000 ) ) ;
#7 = UNCERTAINTY_MEASURE_WITH_UNIT (LENGTH_MEASURE( 1.000000000000000082E-05 ), #55, 'distance_accuracy_value', 'NONE');
#8 = CIRCLE ( 'NONE', #268, 13.00000000000000178 ) ;
#9 = EDGE_LOOP ( 'NONE', ( #50, #176 ) ) ;
#10 = ORIENTED_EDGE ( 'NONE', *, *, #36, .F. ) ;
#11 = APPROVAL_STATUS ( 'not_yet_approved' ) ;
#12 = ORIENTED_EDGE ( 'NONE', *, *, #36, .T. ) ;
#13 = PERSON_AND_ORGANIZATION_ROLE ( 'creator' ) ;
#14 = ORGANIZATION ( 'NEURÈENÝ', 'NEURÈENÝ', '' ) ;
#15 = ORIENTED_EDGE ( 'NONE', *, *, #107, .T. ) ;
#16 = EDGE_CURVE ( 'NONE', #137, #101, #223, .T. ) ;
#17 = PRODUCT_DEFINITION_SHAPE ( 'NONE', 'NONE',  #62 ) ;
#18 = ORIENTED_EDGE ( 'NONE', *, *, #298, .F. ) ;
#19 = VERTEX_POINT ( 'NONE', #46 ) ;
#20 = LOCAL_TIME ( 11, 34, 12.00000000000000000, #192 ) ;
#21 = LINE ( 'NONE', #119, #304 ) ;
#22 = ORIENTED_EDGE ( 'NONE', *, *, #107, .F. ) ;
#23 = EDGE_CURVE ( 'NONE', #101, #137, #151, .T. ) ;
#24 = ORIENTED_EDGE ( 'NONE', *, *, #167, .F. ) ;
#25 = ADVANCED_FACE ( 'NONE', ( #306 ), #142, .T. ) ;
#26 = LINE ( 'NONE', #301, #92 ) ;
#27 = CARTESIAN_POINT ( 'NONE',  ( -10.00000000000000000, 0.000000000000000000, 258.0000000000000000 ) ) ;
#28 = DIRECTION ( 'NONE',  ( -0.000000000000000000, -0.000000000000000000, -1.000000000000000000 ) ) ;
#29 = DIRECTION ( 'NONE',  ( 1.224646799147353207E-16, 1.000000000000000000, -0.000000000000000000 ) ) ;
#30 = CARTESIAN_POINT ( 'NONE',  ( -13.00000000000000178, 0.000000000000000000, 8.000000000000000000 ) ) ;
#31 = CARTESIAN_POINT ( 'NONE',  ( 0.000000000000000000, 0.000000000000000000, 0.000000000000000000 ) ) ;
#32 = PERSON_AND_ORGANIZATION_ROLE ( 'creator' ) ;
#33 = CIRCLE ( 'NONE', #162, 13.00000000000000178 ) ;
#34 =( GEOMETRIC_REPRESENTATION_CONTEXT ( 3 ) GLOBAL_UNCERTAINTY_ASSIGNED_CONTEXT ( ( #7 ) ) GLOBAL_UNIT_ASSIGNED_CONTEXT ( ( #55, #163, #42 ) ) REPRESENTATION_CONTEXT ( 'NONE', 'WORKASPACE' ) );
#35 = CARTESIAN_POINT ( 'NONE',  ( 0.000000000000000000, 0.000000000000000000, 0.000000000000000000 ) ) ;
#36 = EDGE_CURVE ( 'NONE', #102, #281, #66, .T. ) ;
#37 = ORIENTED_EDGE ( 'NONE', *, *, #256, .F. ) ;
#38 = APPLICATION_CONTEXT ( 'configuration controlled 3d designs of mechanical parts and assemblies' ) ;
#39 = PERSON_AND_ORGANIZATION ( #122, #14 ) ;
#40 = ORIENTED_EDGE ( 'NONE', *, *, #178, .T. ) ;
#41 = AXIS2_PLACEMENT_3D ( 'NONE', #72, #143, #214 ) ;
#42 =( NAMED_UNIT ( * ) SI_UNIT ( $, .STERADIAN. ) SOLID_ANGLE_UNIT ( ) );
#43 = AXIS2_PLACEMENT_3D ( 'NONE', #53, #241, #1 ) ;
#44 = EDGE_LOOP ( 'NONE', ( #165, #212, #141, #15 ) ) ;
#45 = ORIENTED_EDGE ( 'NONE', *, *, #164, .T. ) ;
#46 = CARTESIAN_POINT ( 'NONE',  ( -10.00000000000000000, 0.000000000000000000, 258.0000000000000000 ) ) ;
#47 = CC_DESIGN_APPROVAL ( #248, ( #279 ) ) ;
#48 = CARTESIAN_POINT ( 'NONE',  ( 0.000000000000000000, 0.000000000000000000, 0.000000000000000000 ) ) ;
#49 = ADVANCED_FACE ( 'NONE', ( #173 ), #259, .T. ) ;
#50 = ORIENTED_EDGE ( 'NONE', *, *, #16, .T. ) ;
#51 = CARTESIAN_POINT ( 'NONE',  ( 0.000000000000000000, 0.000000000000000000, 0.000000000000000000 ) ) ;
#52 = CARTESIAN_POINT ( 'NONE',  ( 0.000000000000000000, 0.000000000000000000, 8.000000000000000000 ) ) ;
#53 = CARTESIAN_POINT ( 'NONE',  ( 0.000000000000000000, 0.000000000000000000, 258.0000000000000000 ) ) ;
#54 = DIRECTION ( 'NONE',  ( 0.000000000000000000, 0.000000000000000000, 1.000000000000000000 ) ) ;
#55 =( LENGTH_UNIT ( ) NAMED_UNIT ( * ) SI_UNIT ( .MILLI., .METRE. ) );
#56 = CIRCLE ( 'NONE', #263, 10.20000000000000107 ) ;
#57 = DIRECTION ( 'NONE',  ( -0.000000000000000000, -0.000000000000000000, -1.000000000000000000 ) ) ;
#58 = CALENDAR_DATE ( 2022, 7, 7 ) ;
#59 = COORDINATED_UNIVERSAL_TIME_OFFSET ( 1, 0, .AHEAD. ) ;
#60 = ORIENTED_EDGE ( 'NONE', *, *, #145, .T. ) ;
#61 = APPROVAL_PERSON_ORGANIZATION ( #189, #91, #278 ) ;
#62 = PRODUCT_DEFINITION ( 'NEZNÁMÝ', '', #201, #184 ) ;
#63 = APPROVAL_DATE_TIME ( #230, #91 ) ;
#64 = APPROVAL_STATUS ( 'not_yet_approved' ) ;
#65 = PERSON_AND_ORGANIZATION ( #122, #14 ) ;
#66 = CIRCLE ( 'NONE', #41, 0.2000000000000005107 ) ;
#67 = EDGE_LOOP ( 'NONE', ( #210, #120 ) ) ;
#68 = DIRECTION ( 'NONE',  ( 1.000000000000000000, 0.000000000000000000, 0.000000000000000000 ) ) ;
#69 = DIRECTION ( 'NONE',  ( -0.000000000000000000, -0.000000000000000000, -1.000000000000000000 ) ) ;
#70 = APPLICATION_CONTEXT ( 'configuration controlled 3d designs of mechanical parts and assemblies' ) ;
#71 = AXIS2_PLACEMENT_3D ( 'NONE', #52, #106, #154 ) ;
#72 = CARTESIAN_POINT ( 'NONE',  ( 10.20000000000000107, 0.000000000000000000, 8.200000000000013500 ) ) ;
#73 = FACE_OUTER_BOUND ( 'NONE', #168, .T. ) ;
#74 = CYLINDRICAL_SURFACE ( 'NONE', #71, 13.00000000000000178 ) ;
#75 = FACE_OUTER_BOUND ( 'NONE', #44, .T. ) ;
#76 = APPROVAL_PERSON_ORGANIZATION ( #65, #159, #297 ) ;
#77 = PLANE ( 'NONE',  #243 ) ;
#78 = ADVANCED_FACE ( 'NONE', ( #73 ), #234, .F. ) ;
#79 = DIRECTION ( 'NONE',  ( 1.000000000000000000, 0.000000000000000000, 0.000000000000000000 ) ) ;
#80 = CARTESIAN_POINT ( 'NONE',  ( 0.000000000000000000, 0.000000000000000000, 258.0000000000000000 ) ) ;
#81 = DIRECTION ( 'NONE',  ( 0.000000000000000000, 0.000000000000000000, 1.000000000000000000 ) ) ;
#82 = EDGE_CURVE ( 'NONE', #233, #102, #239, .T. ) ;
#83 = PERSON_AND_ORGANIZATION_ROLE ( 'design_supplier' ) ;
#84 = ORIENTED_EDGE ( 'NONE', *, *, #178, .F. ) ;
#85 = DATE_AND_TIME ( #166, #118 ) ;
#86 = AXIS2_PLACEMENT_3D ( 'NONE', #196, #125, #285 ) ;
#87 = EDGE_CURVE ( 'NONE', #111, #102, #21, .T. ) ;
#88 = PERSON_AND_ORGANIZATION ( #122, #14 ) ;
#89 = EDGE_CURVE ( 'NONE', #101, #250, #26, .T. ) ;
#90 = CALENDAR_DATE ( 2022, 7, 7 ) ;
#91 = APPROVAL ( #64, 'NEURÈENÝ' ) ;
#92 = VECTOR ( 'NONE', #69, 1000.000000000000000 ) ;
#93 = CIRCLE ( 'NONE', #232, 10.20000000000000107 ) ;
#94 = DIRECTION ( 'NONE',  ( -0.000000000000000000, -0.000000000000000000, -1.000000000000000000 ) ) ;
#95 = ORIENTED_EDGE ( 'NONE', *, *, #89, .T. ) ;
#96 = ADVANCED_FACE ( 'NONE', ( #299 ), #254, .F. ) ;
#97 = PRODUCT_RELATED_PRODUCT_CATEGORY ( 'detail', '', ( #282 ) ) ;
#98 = CARTESIAN_POINT ( 'NONE',  ( 0.000000000000000000, 0.000000000000000000, 8.000000000000000000 ) ) ;
#99 = AXIS2_PLACEMENT_3D ( 'NONE', #51, #237, #235 ) ;
#100 = AXIS2_PLACEMENT_3D ( 'NONE', #128, #5, #109 ) ;
#101 = VERTEX_POINT ( 'NONE', #174 ) ;
#102 = VERTEX_POINT ( 'NONE', #261 ) ;
#103 = DIRECTION ( 'NONE',  ( -0.000000000000000000, -0.000000000000000000, -1.000000000000000000 ) ) ;
#104 = CARTESIAN_POINT ( 'NONE',  ( 10.20000000000000107, 0.000000000000000000, 8.000000000000007105 ) ) ;
#105 = CC_DESIGN_APPROVAL ( #91, ( #201 ) ) ;
#106 = DIRECTION ( 'NONE',  ( -0.000000000000000000, -0.000000000000000000, -1.000000000000000000 ) ) ;
#107 = EDGE_CURVE ( 'NONE', #213, #250, #8, .T. ) ;
#108 = LINE ( 'NONE', #30, #140 ) ;
#109 = DIRECTION ( 'NONE',  ( 1.000000000000000000, 0.000000000000000000, 0.000000000000000000 ) ) ;
#110 = PERSON_AND_ORGANIZATION ( #122, #14 ) ;
#111 = VERTEX_POINT ( 'NONE', #267 ) ;
#112 = COORDINATED_UNIVERSAL_TIME_OFFSET ( 1, 0, .AHEAD. ) ;
#113 = LOCAL_TIME ( 11, 34, 12.00000000000000000, #194 ) ;
#114 = DATE_AND_TIME ( #246, #191 ) ;
#115 = ORIENTED_EDGE ( 'NONE', *, *, #256, .T. ) ;
#116 = SHAPE_DEFINITION_REPRESENTATION ( #17, #183 ) ;
#117 = DIRECTION ( 'NONE',  ( 1.000000000000000000, 0.000000000000000000, 0.000000000000000000 ) ) ;
#118 = LOCAL_TIME ( 11, 34, 12.00000000000000000, #112 ) ;
#119 = CARTESIAN_POINT ( 'NONE',  ( 10.00000000000000000, 1.224646799147353256E-15, 258.0000000000000000 ) ) ;
#120 = ORIENTED_EDGE ( 'NONE', *, *, #207, .T. ) ;
#121 = CARTESIAN_POINT ( 'NONE',  ( 0.000000000000000000, 0.000000000000000000, 8.000000000000000000 ) ) ;
#122 = PERSON ( 'NEURÈENÝ', 'NEURÈENÝ', 'NEURÈENÝ', ('NEURÈENÝ'), ('NEURÈENÝ'), ('NEURÈENÝ') ) ;
#123 = AXIS2_PLACEMENT_3D ( 'NONE', #195, #283, #68 ) ;
#124 = AXIS2_PLACEMENT_3D ( 'NONE', #221, #180, #130 ) ;
#125 = DIRECTION ( 'NONE',  ( -0.000000000000000000, -0.000000000000000000, -1.000000000000000000 ) ) ;
#126 = CC_DESIGN_PERSON_AND_ORGANIZATION_ASSIGNMENT ( #39, #169, ( #279 ) ) ;
#127 = FACE_OUTER_BOUND ( 'NONE', #296, .T. ) ;
#128 = CARTESIAN_POINT ( 'NONE',  ( 0.000000000000000000, 0.000000000000000000, 8.200000000000013500 ) ) ;
#129 = DIRECTION ( 'NONE',  ( -0.000000000000000000, -0.000000000000000000, -1.000000000000000000 ) ) ;
#130 = DIRECTION ( 'NONE',  ( -1.000000000000000000, 0.000000000000000000, 0.000000000000000000 ) ) ;
#131 = CARTESIAN_POINT ( 'NONE',  ( 0.000000000000000000, 0.000000000000000000, 8.000000000000000000 ) ) ;
#132 = SECURITY_CLASSIFICATION_LEVEL ( 'unclassified' ) ;
#133 = CIRCLE ( 'NONE', #179, 10.00000000000000000 ) ;
#134 = AXIS2_PLACEMENT_3D ( 'NONE', #181, #54, #79 ) ;
#135 = DIRECTION ( 'NONE',  ( 1.000000000000000000, 0.000000000000000000, 0.000000000000000000 ) ) ;
#136 = ORIENTED_EDGE ( 'NONE', *, *, #145, .F. ) ;
#137 = VERTEX_POINT ( 'NONE', #242 ) ;
#138 = APPROVAL_ROLE ( '' ) ;
#139 = ORIENTED_EDGE ( 'NONE', *, *, #150, .T. ) ;
#140 = VECTOR ( 'NONE', #245, 1000.000000000000000 ) ;
#141 = ORIENTED_EDGE ( 'NONE', *, *, #167, .T. ) ;
#142 = CYLINDRICAL_SURFACE ( 'NONE', #86, 10.00000000000000000 ) ;
#143 = DIRECTION ( 'NONE',  ( 0.000000000000000000, -1.000000000000000000, 0.000000000000000000 ) ) ;
#144 = LOCAL_TIME ( 11, 34, 12.00000000000000000, #59 ) ;
#145 = EDGE_CURVE ( 'NONE', #102, #233, #133, .T. ) ;
#146 = DIRECTION ( 'NONE',  ( 0.000000000000000000, 0.000000000000000000, 1.000000000000000000 ) ) ;
#147 = MANIFOLD_SOLID_BREP ( 'Zaoblit1', #286 ) ;
#148 = DIRECTION ( 'NONE',  ( 1.000000000000000000, 0.000000000000000000, 0.000000000000000000 ) ) ;
#149 = DIRECTION ( 'NONE',  ( 0.000000000000000000, 0.000000000000000000, 1.000000000000000000 ) ) ;
#150 = EDGE_CURVE ( 'NONE', #250, #213, #33, .T. ) ;
#151 = CIRCLE ( 'NONE', #190, 13.00000000000000178 ) ;
#152 = LINE ( 'NONE', #27, #215 ) ;
#153 = ADVANCED_FACE ( 'NONE', ( #127 ), #273, .F. ) ;
#154 = DIRECTION ( 'NONE',  ( -1.000000000000000000, 0.000000000000000000, 0.000000000000000000 ) ) ;
#155 = FACE_OUTER_BOUND ( 'NONE', #302, .T. ) ;
#156 = DIRECTION ( 'NONE',  ( -1.000000000000000000, 0.000000000000000000, 0.000000000000000000 ) ) ;
#157 = DIRECTION ( 'NONE',  ( 1.000000000000000000, 0.000000000000000000, 0.000000000000000000 ) ) ;
#158 = DATE_AND_TIME ( #224, #144 ) ;
#159 = APPROVAL ( #11, 'NEURÈENÝ' ) ;
#160 = PERSON_AND_ORGANIZATION ( #122, #14 ) ;
#161 = ORIENTED_EDGE ( 'NONE', *, *, #82, .F. ) ;
#162 = AXIS2_PLACEMENT_3D ( 'NONE', #31, #6, #292 ) ;
#163 =( NAMED_UNIT ( * ) PLANE_ANGLE_UNIT ( ) SI_UNIT ( $, .RADIAN. ) );
#164 = EDGE_CURVE ( 'NONE', #281, #231, #93, .T. ) ;
#165 = ORIENTED_EDGE ( 'NONE', *, *, #89, .F. ) ;
#166 = CALENDAR_DATE ( 2022, 7, 7 ) ;
#167 = EDGE_CURVE ( 'NONE', #137, #213, #108, .T. ) ;
#168 = EDGE_LOOP ( 'NONE', ( #22, #226 ) ) ;
#169 = PERSON_AND_ORGANIZATION_ROLE ( 'classification_officer' ) ;
#170 = EDGE_CURVE ( 'NONE', #233, #231, #255, .T. ) ;
#171 = DIRECTION ( 'NONE',  ( 1.000000000000000000, 0.000000000000000000, 0.000000000000000000 ) ) ;
#172 = CC_DESIGN_DATE_AND_TIME_ASSIGNMENT ( #280, #208, ( #62 ) ) ;
#173 = FACE_OUTER_BOUND ( 'NONE', #67, .T. ) ;
#174 = CARTESIAN_POINT ( 'NONE',  ( 13.00000000000000178, 1.592040838891559293E-15, 8.000000000000000000 ) ) ;
#175 = DIRECTION ( 'NONE',  ( 0.000000000000000000, 0.000000000000000000, 1.000000000000000000 ) ) ;
#176 = ORIENTED_EDGE ( 'NONE', *, *, #23, .T. ) ;
#177 = DIRECTION ( 'NONE',  ( 0.000000000000000000, 0.000000000000000000, 1.000000000000000000 ) ) ;
#178 = EDGE_CURVE ( 'NONE', #231, #281, #56, .T. ) ;
#179 = AXIS2_PLACEMENT_3D ( 'NONE', #307, #177, #222 ) ;
#180 = DIRECTION ( 'NONE',  ( -0.000000000000000000, -0.000000000000000000, -1.000000000000000000 ) ) ;
#181 = CARTESIAN_POINT ( 'NONE',  ( 0.000000000000000000, 0.000000000000000000, 258.0000000000000000 ) ) ;
#182 = CARTESIAN_POINT ( 'NONE',  ( -10.00000000000000000, 0.000000000000000000, 8.200000000000013500 ) ) ;
#183 = ADVANCED_BREP_SHAPE_REPRESENTATION ( '510d', ( #147, #249 ), #34 ) ;
#184 = DESIGN_CONTEXT ( 'detailed design', #70, 'design' ) ;
#185 = APPROVAL_STATUS ( 'not_yet_approved' ) ;
#186 = CC_DESIGN_PERSON_AND_ORGANIZATION_ASSIGNMENT ( #252, #83, ( #201 ) ) ;
#187 = PERSON_AND_ORGANIZATION_ROLE ( 'design_owner' ) ;
#188 = EDGE_LOOP ( 'NONE', ( #197, #18, #115, #236 ) ) ;
#189 = PERSON_AND_ORGANIZATION ( #122, #14 ) ;
#190 = AXIS2_PLACEMENT_3D ( 'NONE', #98, #284, #171 ) ;
#191 = LOCAL_TIME ( 11, 34, 12.00000000000000000, #275 ) ;
#192 = COORDINATED_UNIVERSAL_TIME_OFFSET ( 1, 0, .AHEAD. ) ;
#193 = ORIENTED_EDGE ( 'NONE', *, *, #207, .F. ) ;
#194 = COORDINATED_UNIVERSAL_TIME_OFFSET ( 1, 0, .AHEAD. ) ;
#195 = CARTESIAN_POINT ( 'NONE',  ( 0.000000000000000000, 0.000000000000000000, 8.200000000000013500 ) ) ;
#196 = CARTESIAN_POINT ( 'NONE',  ( 0.000000000000000000, 0.000000000000000000, 258.0000000000000000 ) ) ;
#197 = ORIENTED_EDGE ( 'NONE', *, *, #87, .F. ) ;
#198 = ORIENTED_EDGE ( 'NONE', *, *, #23, .F. ) ;
#199 = ORIENTED_EDGE ( 'NONE', *, *, #170, .F. ) ;
#200 = DIRECTION ( 'NONE',  ( 0.000000000000000000, 0.000000000000000000, 1.000000000000000000 ) ) ;
#201 = PRODUCT_DEFINITION_FORMATION_WITH_SPECIFIED_SOURCE ( 'LIBOVOLNÝ', '', #282, .NOT_KNOWN. ) ;
#202 = ADVANCED_FACE ( 'NONE', ( #274 ), #288, .T. ) ;
#203 = FACE_BOUND ( 'NONE', #227, .T. ) ;
#204 = DIRECTION ( 'NONE',  ( -1.000000000000000000, 1.224646799147353207E-16, 0.000000000000000000 ) ) ;
#205 = PERSON_AND_ORGANIZATION ( #122, #14 ) ;
#206 = APPLICATION_PROTOCOL_DEFINITION ( 'international standard', 'config_control_design', 1994, #70 ) ;
#207 = EDGE_CURVE ( 'NONE', #111, #19, #305, .T. ) ;
#208 = DATE_TIME_ROLE ( 'creation_date' ) ;
#209 = ORIENTED_EDGE ( 'NONE', *, *, #164, .F. ) ;
#210 = ORIENTED_EDGE ( 'NONE', *, *, #298, .T. ) ;
#211 = AXIS2_PLACEMENT_3D ( 'NONE', #4, #29, #204 ) ;
#212 = ORIENTED_EDGE ( 'NONE', *, *, #16, .F. ) ;
#213 = VERTEX_POINT ( 'NONE', #218 ) ;
#214 = DIRECTION ( 'NONE',  ( 0.000000000000000000, 0.000000000000000000, -1.000000000000000000 ) ) ;
#215 = VECTOR ( 'NONE', #28, 1000.000000000000000 ) ;
#216 = CARTESIAN_POINT ( 'NONE',  ( 0.000000000000000000, 0.000000000000000000, 8.000000000000000000 ) ) ;
#217 = CC_DESIGN_PERSON_AND_ORGANIZATION_ASSIGNMENT ( #205, #13, ( #201 ) ) ;
#218 = CARTESIAN_POINT ( 'NONE',  ( -13.00000000000000178, 0.000000000000000000, 0.000000000000000000 ) ) ;
#219 = CC_DESIGN_SECURITY_CLASSIFICATION ( #279, ( #201 ) ) ;
#220 = CARTESIAN_POINT ( 'NONE',  ( 0.000000000000000000, 0.000000000000000000, 8.000000000000000000 ) ) ;
#221 = CARTESIAN_POINT ( 'NONE',  ( 0.000000000000000000, 0.000000000000000000, 8.000000000000000000 ) ) ;
#222 = DIRECTION ( 'NONE',  ( 1.000000000000000000, 0.000000000000000000, 0.000000000000000000 ) ) ;
#223 = CIRCLE ( 'NONE', #2, 13.00000000000000178 ) ;
#224 = CALENDAR_DATE ( 2022, 7, 7 ) ;
#225 = AXIS2_PLACEMENT_3D ( 'NONE', #80, #129, #156 ) ;
#226 = ORIENTED_EDGE ( 'NONE', *, *, #150, .F. ) ;
#227 = EDGE_LOOP ( 'NONE', ( #45, #40 ) ) ;
#228 = APPROVAL_DATE_TIME ( #85, #159 ) ;
#229 = EDGE_LOOP ( 'NONE', ( #161, #257, #209, #10 ) ) ;
#230 = DATE_AND_TIME ( #58, #113 ) ;
#231 = VERTEX_POINT ( 'NONE', #244 ) ;
#232 = AXIS2_PLACEMENT_3D ( 'NONE', #220, #57, #157 ) ;
#233 = VERTEX_POINT ( 'NONE', #182 ) ;
#234 = PLANE ( 'NONE',  #99 ) ;
#235 = DIRECTION ( 'NONE',  ( 1.000000000000000000, 0.000000000000000000, -0.000000000000000000 ) ) ;
#236 = ORIENTED_EDGE ( 'NONE', *, *, #82, .T. ) ;
#237 = DIRECTION ( 'NONE',  ( 0.000000000000000000, 0.000000000000000000, 1.000000000000000000 ) ) ;
#238 = ORIENTED_EDGE ( 'NONE', *, *, #87, .T. ) ;
#239 = CIRCLE ( 'NONE', #272, 10.00000000000000000 ) ;
#240 = DIRECTION ( 'NONE',  ( 1.000000000000000000, 0.000000000000000000, 0.000000000000000000 ) ) ;
#241 = DIRECTION ( 'NONE',  ( 0.000000000000000000, 0.000000000000000000, 1.000000000000000000 ) ) ;
#242 = CARTESIAN_POINT ( 'NONE',  ( -13.00000000000000178, 0.000000000000000000, 8.000000000000000000 ) ) ;
#243 = AXIS2_PLACEMENT_3D ( 'NONE', #216, #200, #289 ) ;
#244 = CARTESIAN_POINT ( 'NONE',  ( -10.20000000000000107, 1.249139735130300365E-15, 8.000000000000007105 ) ) ;
#245 = DIRECTION ( 'NONE',  ( -0.000000000000000000, -0.000000000000000000, -1.000000000000000000 ) ) ;
#246 = CALENDAR_DATE ( 2022, 7, 7 ) ;
#247 = EDGE_LOOP ( 'NONE', ( #193, #238, #60, #37 ) ) ;
#248 = APPROVAL ( #185, 'NEURÈENÝ' ) ;
#249 = AXIS2_PLACEMENT_3D ( 'NONE', #35, #81, #135 ) ;
#250 = VERTEX_POINT ( 'NONE', #291 ) ;
#251 = ADVANCED_FACE ( 'NONE', ( #155 ), #74, .T. ) ;
#252 = PERSON_AND_ORGANIZATION ( #122, #14 ) ;
#253 = APPROVAL_DATE_TIME ( #114, #248 ) ;
#254 = TOROIDAL_SURFACE ( 'NONE', #123, 10.20000000000000107, 0.2000000000000000111 ) ;
#255 = CIRCLE ( 'NONE', #211, 0.2000000000000005107 ) ;
#256 = EDGE_CURVE ( 'NONE', #19, #233, #152, .T. ) ;
#257 = ORIENTED_EDGE ( 'NONE', *, *, #170, .T. ) ;
#258 = ADVANCED_FACE ( 'NONE', ( #203, #270 ), #77, .T. ) ;
#259 = PLANE ( 'NONE',  #262 ) ;
#260 = CC_DESIGN_PERSON_AND_ORGANIZATION_ASSIGNMENT ( #88, #32, ( #62 ) ) ;
#261 = CARTESIAN_POINT ( 'NONE',  ( 10.00000000000000000, 1.224646799147353256E-15, 8.200000000000013500 ) ) ;
#262 = AXIS2_PLACEMENT_3D ( 'NONE', #303, #265, #266 ) ;
#263 = AXIS2_PLACEMENT_3D ( 'NONE', #131, #103, #240 ) ;
#264 = ADVANCED_FACE ( 'NONE', ( #75 ), #271, .T. ) ;
#265 = DIRECTION ( 'NONE',  ( 0.000000000000000000, 0.000000000000000000, 1.000000000000000000 ) ) ;
#266 = DIRECTION ( 'NONE',  ( 1.000000000000000000, 0.000000000000000000, -0.000000000000000000 ) ) ;
#267 = CARTESIAN_POINT ( 'NONE',  ( 10.00000000000000000, 1.224646799147353256E-15, 258.0000000000000000 ) ) ;
#268 = AXIS2_PLACEMENT_3D ( 'NONE', #48, #146, #293 ) ;
#269 = CIRCLE ( 'NONE', #134, 10.00000000000000000 ) ;
#270 = FACE_OUTER_BOUND ( 'NONE', #9, .T. ) ;
#271 = CYLINDRICAL_SURFACE ( 'NONE', #124, 13.00000000000000178 ) ;
#272 = AXIS2_PLACEMENT_3D ( 'NONE', #287, #149, #117 ) ;
#273 = TOROIDAL_SURFACE ( 'NONE', #100, 10.20000000000000107, 0.2000000000000000111 ) ;
#274 = FACE_OUTER_BOUND ( 'NONE', #247, .T. ) ;
#275 = COORDINATED_UNIVERSAL_TIME_OFFSET ( 1, 0, .AHEAD. ) ;
#276 = CC_DESIGN_PERSON_AND_ORGANIZATION_ASSIGNMENT ( #110, #187, ( #282 ) ) ;
#277 = APPLICATION_PROTOCOL_DEFINITION ( 'international standard', 'config_control_design', 1994, #38 ) ;
#278 = APPROVAL_ROLE ( '' ) ;
#279 = SECURITY_CLASSIFICATION ( '', '', #132 ) ;
#280 = DATE_AND_TIME ( #90, #20 ) ;
#281 = VERTEX_POINT ( 'NONE', #104 ) ;
#282 = PRODUCT ( '510d', '510d', '', ( #295 ) ) ;
#283 = DIRECTION ( 'NONE',  ( 0.000000000000000000, 0.000000000000000000, 1.000000000000000000 ) ) ;
#284 = DIRECTION ( 'NONE',  ( 0.000000000000000000, 0.000000000000000000, 1.000000000000000000 ) ) ;
#285 = DIRECTION ( 'NONE',  ( -1.000000000000000000, 0.000000000000000000, 0.000000000000000000 ) ) ;
#286 = CLOSED_SHELL ( 'NONE', ( #96, #202, #251, #264, #258, #78, #25, #49, #153 ) ) ;
#287 = CARTESIAN_POINT ( 'NONE',  ( 0.000000000000000000, 0.000000000000000000, 8.200000000000013500 ) ) ;
#288 = CYLINDRICAL_SURFACE ( 'NONE', #225, 10.00000000000000000 ) ;
#289 = DIRECTION ( 'NONE',  ( 1.000000000000000000, 0.000000000000000000, -0.000000000000000000 ) ) ;
#290 = CC_DESIGN_APPROVAL ( #159, ( #62 ) ) ;
#291 = CARTESIAN_POINT ( 'NONE',  ( 13.00000000000000178, 1.592040838891559293E-15, 0.000000000000000000 ) ) ;
#292 = DIRECTION ( 'NONE',  ( 1.000000000000000000, 0.000000000000000000, 0.000000000000000000 ) ) ;
#293 = DIRECTION ( 'NONE',  ( 1.000000000000000000, 0.000000000000000000, 0.000000000000000000 ) ) ;
#294 = DATE_TIME_ROLE ( 'classification_date' ) ;
#295 = MECHANICAL_CONTEXT ( 'NONE', #38, 'mechanical' ) ;
#296 = EDGE_LOOP ( 'NONE', ( #199, #136, #12, #84 ) ) ;
#297 = APPROVAL_ROLE ( '' ) ;
#298 = EDGE_CURVE ( 'NONE', #19, #111, #269, .T. ) ;
#299 = FACE_OUTER_BOUND ( 'NONE', #229, .T. ) ;
#300 = CC_DESIGN_DATE_AND_TIME_ASSIGNMENT ( #158, #294, ( #279 ) ) ;
#301 = CARTESIAN_POINT ( 'NONE',  ( 13.00000000000000178, 1.592040838891559293E-15, 8.000000000000000000 ) ) ;
#302 = EDGE_LOOP ( 'NONE', ( #198, #95, #139, #24 ) ) ;
#303 = CARTESIAN_POINT ( 'NONE',  ( 0.000000000000000000, 0.000000000000000000, 258.0000000000000000 ) ) ;
#304 = VECTOR ( 'NONE', #94, 1000.000000000000000 ) ;
#305 = CIRCLE ( 'NONE', #43, 10.00000000000000000 ) ;
#306 = FACE_OUTER_BOUND ( 'NONE', #188, .T. ) ;
#307 = CARTESIAN_POINT ( 'NONE',  ( 0.000000000000000000, 0.000000000000000000, 8.200000000000013500 ) ) ;
ENDSEC;
END-ISO-10303-21;
