ISO-10303-21;
HEADER;
FILE_DESCRIPTION (( 'STEP AP203' ),
    '1' );
FILE_NAME ('66ee.STEP',
    '2022-07-07T10:19:44',
    ( '' ),
    ( '' ),
    'SwSTEP 2.0',
    'SolidWorks 2019',
    '' );
FILE_SCHEMA (( 'CONFIG_CONTROL_DESIGN' ));
ENDSEC;

DATA;
#1 = EDGE_CURVE ( 'NONE', #25, #274, #211, .T. ) ;
#2 = CARTESIAN_POINT ( 'NONE',  ( 0.000000000000000000, 0.000000000000000000, 3.000000000000000000 ) ) ;
#3 = FACE_OUTER_BOUND ( 'NONE', #205, .T. ) ;
#4 = ADVANCED_FACE ( 'NONE', ( #3 ), #289, .T. ) ;
#5 = CARTESIAN_POINT ( 'NONE',  ( -2.700000000000000178, 3.306546357697853733E-16, 2.999999999999990674 ) ) ;
#6 = ORIENTED_EDGE ( 'NONE', *, *, #84, .T. ) ;
#7 = ORIENTED_EDGE ( 'NONE', *, *, #29, .T. ) ;
#8 = EDGE_CURVE ( 'NONE', #279, #179, #74, .T. ) ;
#9 = CARTESIAN_POINT ( 'NONE',  ( 0.000000000000000000, 0.000000000000000000, 3.000000000000000000 ) ) ;
#10 = CYLINDRICAL_SURFACE ( 'NONE', #22, 2.500000000000000000 ) ;
#11 = CALENDAR_DATE ( 2022, 7, 7 ) ;
#12 = CARTESIAN_POINT ( 'NONE',  ( 0.000000000000000000, 0.000000000000000000, 3.000000000000000000 ) ) ;
#13 = CIRCLE ( 'NONE', #151, 0.2000000000000000944 ) ;
#14 = SECURITY_CLASSIFICATION_LEVEL ( 'unclassified' ) ;
#15 = CC_DESIGN_APPROVAL ( #241, ( #139 ) ) ;
#16 = ADVANCED_FACE ( 'NONE', ( #96 ), #293, .T. ) ;
#17 = APPROVAL_STATUS ( 'not_yet_approved' ) ;
#18 = ORIENTED_EDGE ( 'NONE', *, *, #185, .F. ) ;
#19 = CARTESIAN_POINT ( 'NONE',  ( 5.000000000000000000, 6.123233995736766282E-16, 3.000000000000000000 ) ) ;
#20 = ORIENTED_EDGE ( 'NONE', *, *, #187, .F. ) ;
#21 = FACE_OUTER_BOUND ( 'NONE', #159, .T. ) ;
#22 = AXIS2_PLACEMENT_3D ( 'NONE', #98, #199, #49 ) ;
#23 = CIRCLE ( 'NONE', #233, 5.000000000000000000 ) ;
#24 = LINE ( 'NONE', #112, #201 ) ;
#25 = VERTEX_POINT ( 'NONE', #220 ) ;
#26 = VECTOR ( 'NONE', #75, 1000.000000000000000 ) ;
#27 = FACE_OUTER_BOUND ( 'NONE', #240, .T. ) ;
#28 = VERTEX_POINT ( 'NONE', #141 ) ;
#29 = EDGE_CURVE ( 'NONE', #164, #28, #268, .T. ) ;
#30 = AXIS2_PLACEMENT_3D ( 'NONE', #297, #80, #174 ) ;
#31 = DIRECTION ( 'NONE',  ( 0.000000000000000000, 0.000000000000000000, 1.000000000000000000 ) ) ;
#32 = DIRECTION ( 'NONE',  ( 1.000000000000000000, 0.000000000000000000, 0.000000000000000000 ) ) ;
#33 = DATE_AND_TIME ( #11, #93 ) ;
#34 = CARTESIAN_POINT ( 'NONE',  ( 5.000000000000000000, 6.123233995736766282E-16, 0.000000000000000000 ) ) ;
#35 = COORDINATED_UNIVERSAL_TIME_OFFSET ( 1, 0, .AHEAD. ) ;
#36 = DIRECTION ( 'NONE',  ( 0.000000000000000000, 0.000000000000000000, 1.000000000000000000 ) ) ;
#37 = APPROVAL_DATE_TIME ( #247, #241 ) ;
#38 = ORIENTED_EDGE ( 'NONE', *, *, #286, .T. ) ;
#39 = ORIENTED_EDGE ( 'NONE', *, *, #210, .F. ) ;
#40 = DIRECTION ( 'NONE',  ( -0.000000000000000000, -0.000000000000000000, -1.000000000000000000 ) ) ;
#41 = ADVANCED_FACE ( 'NONE', ( #166 ), #10, .T. ) ;
#42 = EDGE_CURVE ( 'NONE', #264, #28, #186, .T. ) ;
#43 = LOCAL_TIME ( 12, 19, 44.00000000000000000, #243 ) ;
#44 = CARTESIAN_POINT ( 'NONE',  ( 0.000000000000000000, 0.000000000000000000, 0.000000000000000000 ) ) ;
#45 = EDGE_LOOP ( 'NONE', ( #20, #39, #7, #299 ) ) ;
#46 = DIRECTION ( 'NONE',  ( -0.000000000000000000, -0.000000000000000000, -1.000000000000000000 ) ) ;
#47 = ORIENTED_EDGE ( 'NONE', *, *, #8, .F. ) ;
#48 = CIRCLE ( 'NONE', #170, 2.700000000000000178 ) ;
#49 = DIRECTION ( 'NONE',  ( -1.000000000000000000, 0.000000000000000000, 0.000000000000000000 ) ) ;
#50 = APPROVAL_STATUS ( 'not_yet_approved' ) ;
#51 = AXIS2_PLACEMENT_3D ( 'NONE', #222, #76, #246 ) ;
#52 =( GEOMETRIC_REPRESENTATION_CONTEXT ( 3 ) GLOBAL_UNCERTAINTY_ASSIGNED_CONTEXT ( ( #193 ) ) GLOBAL_UNIT_ASSIGNED_CONTEXT ( ( #206, #256, #128 ) ) REPRESENTATION_CONTEXT ( 'NONE', 'WORKASPACE' ) );
#53 = CC_DESIGN_PERSON_AND_ORGANIZATION_ASSIGNMENT ( #225, #269, ( #67 ) ) ;
#54 = DIRECTION ( 'NONE',  ( 0.000000000000000000, 0.000000000000000000, 1.000000000000000000 ) ) ;
#55 = COORDINATED_UNIVERSAL_TIME_OFFSET ( 1, 0, .AHEAD. ) ;
#56 = PERSON_AND_ORGANIZATION ( #209, #245 ) ;
#57 = EDGE_CURVE ( 'NONE', #82, #164, #138, .T. ) ;
#58 = FACE_OUTER_BOUND ( 'NONE', #192, .T. ) ;
#59 = APPROVAL_ROLE ( '' ) ;
#60 = VERTEX_POINT ( 'NONE', #188 ) ;
#61 = CARTESIAN_POINT ( 'NONE',  ( 2.500000000000000000, 3.061616997868383141E-16, 318.0000000000000000 ) ) ;
#62 = ORIENTED_EDGE ( 'NONE', *, *, #194, .T. ) ;
#63 = CARTESIAN_POINT ( 'NONE',  ( -2.700000000000000178, 3.306546357697853733E-16, 3.199999999999980638 ) ) ;
#64 = ADVANCED_FACE ( 'NONE', ( #163 ), #238, .F. ) ;
#65 = TOROIDAL_SURFACE ( 'NONE', #284, 2.700000000000000178, 0.2000000000000000111 ) ;
#66 = APPROVAL ( #50, 'NEURÈENÝ' ) ;
#67 = PRODUCT_DEFINITION_FORMATION_WITH_SPECIFIED_SOURCE ( 'LIBOVOLNÝ', '', #298, .NOT_KNOWN. ) ;
#68 = DIRECTION ( 'NONE',  ( 0.000000000000000000, 0.000000000000000000, 1.000000000000000000 ) ) ;
#69 = ORIENTED_EDGE ( 'NONE', *, *, #162, .F. ) ;
#70 = CARTESIAN_POINT ( 'NONE',  ( 0.000000000000000000, 0.000000000000000000, 3.199999999999980638 ) ) ;
#71 = EDGE_LOOP ( 'NONE', ( #228, #257, #191, #253 ) ) ;
#72 = ORIENTED_EDGE ( 'NONE', *, *, #248, .F. ) ;
#73 = DESIGN_CONTEXT ( 'detailed design', #182, 'design' ) ;
#74 = CIRCLE ( 'NONE', #51, 0.2000000000000000944 ) ;
#75 = DIRECTION ( 'NONE',  ( -0.000000000000000000, -0.000000000000000000, -1.000000000000000000 ) ) ;
#76 = DIRECTION ( 'NONE',  ( 0.000000000000000000, -1.000000000000000000, 0.000000000000000000 ) ) ;
#77 = APPROVAL_DATE_TIME ( #97, #66 ) ;
#78 = CARTESIAN_POINT ( 'NONE',  ( 0.000000000000000000, 0.000000000000000000, 0.000000000000000000 ) ) ;
#79 = PERSON_AND_ORGANIZATION_ROLE ( 'design_owner' ) ;
#80 = DIRECTION ( 'NONE',  ( 0.000000000000000000, 0.000000000000000000, 1.000000000000000000 ) ) ;
#81 = CALENDAR_DATE ( 2022, 7, 7 ) ;
#82 = VERTEX_POINT ( 'NONE', #133 ) ;
#83 = ORIENTED_EDGE ( 'NONE', *, *, #259, .F. ) ;
#84 = EDGE_CURVE ( 'NONE', #60, #279, #110, .T. ) ;
#85 = DIRECTION ( 'NONE',  ( 1.224646799147353207E-16, 1.000000000000000000, -0.000000000000000000 ) ) ;
#86 = DIRECTION ( 'NONE',  ( 1.000000000000000000, 0.000000000000000000, 0.000000000000000000 ) ) ;
#87 = EDGE_CURVE ( 'NONE', #25, #60, #24, .T. ) ;
#88 = AXIS2_PLACEMENT_3D ( 'NONE', #235, #160, #218 ) ;
#89 = DIRECTION ( 'NONE',  ( -0.000000000000000000, -0.000000000000000000, -1.000000000000000000 ) ) ;
#90 = EDGE_LOOP ( 'NONE', ( #18, #219 ) ) ;
#91 = DIRECTION ( 'NONE',  ( 1.000000000000000000, 0.000000000000000000, 0.000000000000000000 ) ) ;
#92 = VERTEX_POINT ( 'NONE', #5 ) ;
#93 = LOCAL_TIME ( 12, 19, 44.00000000000000000, #251 ) ;
#94 = VECTOR ( 'NONE', #258, 1000.000000000000000 ) ;
#95 = TOROIDAL_SURFACE ( 'NONE', #260, 2.700000000000000178, 0.2000000000000000111 ) ;
#96 = FACE_OUTER_BOUND ( 'NONE', #129, .T. ) ;
#97 = DATE_AND_TIME ( #273, #277 ) ;
#98 = CARTESIAN_POINT ( 'NONE',  ( 0.000000000000000000, 0.000000000000000000, 318.0000000000000000 ) ) ;
#99 = DATE_AND_TIME ( #81, #181 ) ;
#100 = LINE ( 'NONE', #19, #94 ) ;
#101 = PERSON_AND_ORGANIZATION_ROLE ( 'classification_officer' ) ;
#102 = ORIENTED_EDGE ( 'NONE', *, *, #117, .F. ) ;
#103 = DATE_TIME_ROLE ( 'creation_date' ) ;
#104 = ORIENTED_EDGE ( 'NONE', *, *, #1, .T. ) ;
#105 = ORIENTED_EDGE ( 'NONE', *, *, #87, .T. ) ;
#106 = LINE ( 'NONE', #183, #239 ) ;
#107 = AXIS2_PLACEMENT_3D ( 'NONE', #9, #197, #32 ) ;
#108 = CIRCLE ( 'NONE', #307, 5.000000000000000000 ) ;
#109 = CC_DESIGN_PERSON_AND_ORGANIZATION_ASSIGNMENT ( #147, #271, ( #213 ) ) ;
#110 = CIRCLE ( 'NONE', #88, 2.500000000000000000 ) ;
#111 = APPROVAL_PERSON_ORGANIZATION ( #169, #241, #59 ) ;
#112 = CARTESIAN_POINT ( 'NONE',  ( -2.500000000000000000, 0.000000000000000000, 318.0000000000000000 ) ) ;
#113 = CARTESIAN_POINT ( 'NONE',  ( 0.000000000000000000, 0.000000000000000000, 318.0000000000000000 ) ) ;
#114 = CC_DESIGN_PERSON_AND_ORGANIZATION_ASSIGNMENT ( #207, #123, ( #67 ) ) ;
#115 = DIRECTION ( 'NONE',  ( 1.000000000000000000, 0.000000000000000000, -0.000000000000000000 ) ) ;
#116 = ORIENTED_EDGE ( 'NONE', *, *, #286, .F. ) ;
#117 = EDGE_CURVE ( 'NONE', #179, #92, #48, .T. ) ;
#118 = DIRECTION ( 'NONE',  ( 1.000000000000000000, 0.000000000000000000, -0.000000000000000000 ) ) ;
#119 = APPLICATION_PROTOCOL_DEFINITION ( 'international standard', 'config_control_design', 1994, #182 ) ;
#120 = DIRECTION ( 'NONE',  ( -1.000000000000000000, 0.000000000000000000, 0.000000000000000000 ) ) ;
#121 = APPROVAL_DATE_TIME ( #223, #304 ) ;
#122 = CARTESIAN_POINT ( 'NONE',  ( 2.700000000000000178, 0.000000000000000000, 2.999999999999990674 ) ) ;
#123 = PERSON_AND_ORGANIZATION_ROLE ( 'design_supplier' ) ;
#124 = DIRECTION ( 'NONE',  ( 1.000000000000000000, 0.000000000000000000, -0.000000000000000000 ) ) ;
#125 = AXIS2_PLACEMENT_3D ( 'NONE', #12, #300, #305 ) ;
#126 = CALENDAR_DATE ( 2022, 7, 7 ) ;
#127 = ORIENTED_EDGE ( 'NONE', *, *, #248, .T. ) ;
#128 =( NAMED_UNIT ( * ) SI_UNIT ( $, .STERADIAN. ) SOLID_ANGLE_UNIT ( ) );
#129 = EDGE_LOOP ( 'NONE', ( #83, #208, #105, #6 ) ) ;
#130 = CARTESIAN_POINT ( 'NONE',  ( 0.000000000000000000, 0.000000000000000000, 3.000000000000000000 ) ) ;
#131 = ADVANCED_FACE ( 'NONE', ( #288 ), #190, .T. ) ;
#132 = LOCAL_TIME ( 12, 19, 44.00000000000000000, #55 ) ;
#133 = CARTESIAN_POINT ( 'NONE',  ( 5.000000000000000000, 6.123233995736766282E-16, 3.000000000000000000 ) ) ;
#134 = ORIENTED_EDGE ( 'NONE', *, *, #84, .F. ) ;
#135 = CC_DESIGN_DATE_AND_TIME_ASSIGNMENT ( #33, #103, ( #213 ) ) ;
#136 = DIRECTION ( 'NONE',  ( -1.000000000000000000, 0.000000000000000000, 0.000000000000000000 ) ) ;
#137 = ORIENTED_EDGE ( 'NONE', *, *, #57, .T. ) ;
#138 = CIRCLE ( 'NONE', #107, 5.000000000000000000 ) ;
#139 = SECURITY_CLASSIFICATION ( '', '', #14 ) ;
#140 = ADVANCED_FACE ( 'NONE', ( #27 ), #65, .F. ) ;
#141 = CARTESIAN_POINT ( 'NONE',  ( -5.000000000000000000, 0.000000000000000000, 0.000000000000000000 ) ) ;
#142 = DATE_TIME_ROLE ( 'classification_date' ) ;
#143 = AXIS2_PLACEMENT_3D ( 'NONE', #168, #295, #120 ) ;
#144 = DIRECTION ( 'NONE',  ( 1.000000000000000000, 0.000000000000000000, 0.000000000000000000 ) ) ;
#145 = DIRECTION ( 'NONE',  ( 1.000000000000000000, 0.000000000000000000, 0.000000000000000000 ) ) ;
#146 = CARTESIAN_POINT ( 'NONE',  ( 0.000000000000000000, 0.000000000000000000, 3.199999999999980638 ) ) ;
#147 = PERSON_AND_ORGANIZATION ( #209, #245 ) ;
#148 = PLANE ( 'NONE',  #165 ) ;
#149 = CALENDAR_DATE ( 2022, 7, 7 ) ;
#150 = ORIENTED_EDGE ( 'NONE', *, *, #259, .T. ) ;
#151 = AXIS2_PLACEMENT_3D ( 'NONE', #63, #85, #294 ) ;
#152 = DIRECTION ( 'NONE',  ( 1.000000000000000000, 0.000000000000000000, 0.000000000000000000 ) ) ;
#153 = COORDINATED_UNIVERSAL_TIME_OFFSET ( 1, 0, .AHEAD. ) ;
#154 = ORIENTED_EDGE ( 'NONE', *, *, #87, .F. ) ;
#155 = CARTESIAN_POINT ( 'NONE',  ( -5.000000000000000000, 0.000000000000000000, 3.000000000000000000 ) ) ;
#156 = MANIFOLD_SOLID_BREP ( 'Zaoblit1', #237 ) ;
#157 = CIRCLE ( 'NONE', #30, 2.500000000000000000 ) ;
#158 = CC_DESIGN_DATE_AND_TIME_ASSIGNMENT ( #99, #142, ( #139 ) ) ;
#159 = EDGE_LOOP ( 'NONE', ( #69, #116, #236, #262 ) ) ;
#160 = DIRECTION ( 'NONE',  ( 0.000000000000000000, 0.000000000000000000, 1.000000000000000000 ) ) ;
#161 = ORIENTED_EDGE ( 'NONE', *, *, #210, .T. ) ;
#162 = EDGE_CURVE ( 'NONE', #60, #92, #13, .T. ) ;
#163 = FACE_OUTER_BOUND ( 'NONE', #90, .T. ) ;
#164 = VERTEX_POINT ( 'NONE', #155 ) ;
#165 = AXIS2_PLACEMENT_3D ( 'NONE', #252, #36, #124 ) ;
#166 = FACE_OUTER_BOUND ( 'NONE', #290, .T. ) ;
#167 = ADVANCED_BREP_SHAPE_REPRESENTATION ( '66ee', ( #156, #255 ), #52 ) ;
#168 = CARTESIAN_POINT ( 'NONE',  ( 0.000000000000000000, 0.000000000000000000, 318.0000000000000000 ) ) ;
#169 = PERSON_AND_ORGANIZATION ( #209, #245 ) ;
#170 = AXIS2_PLACEMENT_3D ( 'NONE', #216, #46, #91 ) ;
#171 = DIRECTION ( 'NONE',  ( 0.000000000000000000, 0.000000000000000000, 1.000000000000000000 ) ) ;
#172 = CC_DESIGN_PERSON_AND_ORGANIZATION_ASSIGNMENT ( #278, #101, ( #139 ) ) ;
#173 = APPROVAL_ROLE ( '' ) ;
#174 = DIRECTION ( 'NONE',  ( 1.000000000000000000, 0.000000000000000000, 0.000000000000000000 ) ) ;
#175 = APPROVAL_STATUS ( 'not_yet_approved' ) ;
#176 = EDGE_LOOP ( 'NONE', ( #229, #62 ) ) ;
#177 = DIRECTION ( 'NONE',  ( 0.000000000000000000, 0.000000000000000000, 1.000000000000000000 ) ) ;
#178 = PERSON_AND_ORGANIZATION ( #209, #245 ) ;
#179 = VERTEX_POINT ( 'NONE', #122 ) ;
#180 = CARTESIAN_POINT ( 'NONE',  ( 0.000000000000000000, 0.000000000000000000, 3.000000000000000000 ) ) ;
#181 = LOCAL_TIME ( 12, 19, 44.00000000000000000, #153 ) ;
#182 = APPLICATION_CONTEXT ( 'configuration controlled 3d designs of mechanical parts and assemblies' ) ;
#183 = CARTESIAN_POINT ( 'NONE',  ( 2.500000000000000000, 3.061616997868383141E-16, 318.0000000000000000 ) ) ;
#184 = CC_DESIGN_SECURITY_CLASSIFICATION ( #139, ( #67 ) ) ;
#185 = EDGE_CURVE ( 'NONE', #28, #264, #23, .T. ) ;
#186 = CIRCLE ( 'NONE', #254, 5.000000000000000000 ) ;
#187 = EDGE_CURVE ( 'NONE', #82, #264, #100, .T. ) ;
#188 = CARTESIAN_POINT ( 'NONE',  ( -2.500000000000000000, 0.000000000000000000, 3.199999999999980638 ) ) ;
#189 = DIRECTION ( 'NONE',  ( 0.000000000000000000, 0.000000000000000000, 1.000000000000000000 ) ) ;
#190 = CYLINDRICAL_SURFACE ( 'NONE', #291, 5.000000000000000000 ) ;
#191 = ORIENTED_EDGE ( 'NONE', *, *, #42, .T. ) ;
#192 = EDGE_LOOP ( 'NONE', ( #161, #137 ) ) ;
#193 = UNCERTAINTY_MEASURE_WITH_UNIT (LENGTH_MEASURE( 1.000000000000000082E-05 ), #206, 'distance_accuracy_value', 'NONE');
#194 = EDGE_CURVE ( 'NONE', #92, #179, #280, .T. ) ;
#195 = AXIS2_PLACEMENT_3D ( 'NONE', #275, #230, #226 ) ;
#196 = APPLICATION_CONTEXT ( 'configuration controlled 3d designs of mechanical parts and assemblies' ) ;
#197 = DIRECTION ( 'NONE',  ( 0.000000000000000000, 0.000000000000000000, 1.000000000000000000 ) ) ;
#198 = MECHANICAL_CONTEXT ( 'NONE', #196, 'mechanical' ) ;
#199 = DIRECTION ( 'NONE',  ( -0.000000000000000000, -0.000000000000000000, -1.000000000000000000 ) ) ;
#200 = PERSON_AND_ORGANIZATION ( #209, #245 ) ;
#201 = VECTOR ( 'NONE', #263, 1000.000000000000000 ) ;
#202 = CARTESIAN_POINT ( 'NONE',  ( 2.500000000000000000, 3.061616997868383141E-16, 3.199999999999980638 ) ) ;
#203 = ADVANCED_FACE ( 'NONE', ( #303 ), #224, .T. ) ;
#204 = CARTESIAN_POINT ( 'NONE',  ( 0.000000000000000000, 0.000000000000000000, 0.000000000000000000 ) ) ;
#205 = EDGE_LOOP ( 'NONE', ( #104, #127 ) ) ;
#206 =( LENGTH_UNIT ( ) NAMED_UNIT ( * ) SI_UNIT ( .MILLI., .METRE. ) );
#207 = PERSON_AND_ORGANIZATION ( #209, #245 ) ;
#208 = ORIENTED_EDGE ( 'NONE', *, *, #1, .F. ) ;
#209 = PERSON ( 'NEURÈENÝ', 'NEURÈENÝ', 'NEURÈENÝ', ('NEURÈENÝ'), ('NEURÈENÝ'), ('NEURÈENÝ') ) ;
#210 = EDGE_CURVE ( 'NONE', #164, #82, #108, .T. ) ;
#211 = CIRCLE ( 'NONE', #214, 2.500000000000000000 ) ;
#212 = DIRECTION ( 'NONE',  ( 1.000000000000000000, 0.000000000000000000, 0.000000000000000000 ) ) ;
#213 = PRODUCT_DEFINITION ( 'NEZNÁMÝ', '', #67, #73 ) ;
#214 = AXIS2_PLACEMENT_3D ( 'NONE', #113, #189, #217 ) ;
#215 = APPROVAL_PERSON_ORGANIZATION ( #200, #66, #227 ) ;
#216 = CARTESIAN_POINT ( 'NONE',  ( 0.000000000000000000, 0.000000000000000000, 3.000000000000000000 ) ) ;
#217 = DIRECTION ( 'NONE',  ( 1.000000000000000000, 0.000000000000000000, 0.000000000000000000 ) ) ;
#218 = DIRECTION ( 'NONE',  ( 1.000000000000000000, 0.000000000000000000, 0.000000000000000000 ) ) ;
#219 = ORIENTED_EDGE ( 'NONE', *, *, #42, .F. ) ;
#220 = CARTESIAN_POINT ( 'NONE',  ( -2.500000000000000000, 0.000000000000000000, 318.0000000000000000 ) ) ;
#221 = CC_DESIGN_PERSON_AND_ORGANIZATION_ASSIGNMENT ( #56, #79, ( #298 ) ) ;
#222 = CARTESIAN_POINT ( 'NONE',  ( 2.700000000000000178, 0.000000000000000000, 3.199999999999980638 ) ) ;
#223 = DATE_AND_TIME ( #126, #132 ) ;
#224 = CYLINDRICAL_SURFACE ( 'NONE', #125, 5.000000000000000000 ) ;
#225 = PERSON_AND_ORGANIZATION ( #209, #245 ) ;
#226 = DIRECTION ( 'NONE',  ( 1.000000000000000000, 0.000000000000000000, 0.000000000000000000 ) ) ;
#227 = APPROVAL_ROLE ( '' ) ;
#228 = ORIENTED_EDGE ( 'NONE', *, *, #57, .F. ) ;
#229 = ORIENTED_EDGE ( 'NONE', *, *, #117, .T. ) ;
#230 = DIRECTION ( 'NONE',  ( 0.000000000000000000, 0.000000000000000000, 1.000000000000000000 ) ) ;
#231 = AXIS2_PLACEMENT_3D ( 'NONE', #44, #68, #115 ) ;
#232 = CC_DESIGN_APPROVAL ( #66, ( #213 ) ) ;
#233 = AXIS2_PLACEMENT_3D ( 'NONE', #78, #177, #212 ) ;
#234 = AXIS2_PLACEMENT_3D ( 'NONE', #180, #40, #270 ) ;
#235 = CARTESIAN_POINT ( 'NONE',  ( 0.000000000000000000, 0.000000000000000000, 3.199999999999980638 ) ) ;
#236 = ORIENTED_EDGE ( 'NONE', *, *, #8, .T. ) ;
#237 = CLOSED_SHELL ( 'NONE', ( #140, #41, #203, #131, #306, #64, #16, #4, #249 ) ) ;
#238 = PLANE ( 'NONE',  #231 ) ;
#239 = VECTOR ( 'NONE', #250, 1000.000000000000000 ) ;
#240 = EDGE_LOOP ( 'NONE', ( #134, #302, #102, #47 ) ) ;
#241 = APPROVAL ( #175, 'NEURÈENÝ' ) ;
#242 = CARTESIAN_POINT ( 'NONE',  ( 0.000000000000000000, 0.000000000000000000, 0.000000000000000000 ) ) ;
#243 = COORDINATED_UNIVERSAL_TIME_OFFSET ( 1, 0, .AHEAD. ) ;
#244 = AXIS2_PLACEMENT_3D ( 'NONE', #292, #31, #118 ) ;
#245 = ORGANIZATION ( 'NEURÈENÝ', 'NEURÈENÝ', '' ) ;
#246 = DIRECTION ( 'NONE',  ( 0.000000000000000000, 0.000000000000000000, -1.000000000000000000 ) ) ;
#247 = DATE_AND_TIME ( #149, #43 ) ;
#248 = EDGE_CURVE ( 'NONE', #274, #25, #287, .T. ) ;
#249 = ADVANCED_FACE ( 'NONE', ( #21 ), #95, .F. ) ;
#250 = DIRECTION ( 'NONE',  ( -0.000000000000000000, -0.000000000000000000, -1.000000000000000000 ) ) ;
#251 = COORDINATED_UNIVERSAL_TIME_OFFSET ( 1, 0, .AHEAD. ) ;
#252 = CARTESIAN_POINT ( 'NONE',  ( 0.000000000000000000, 0.000000000000000000, 3.000000000000000000 ) ) ;
#253 = ORIENTED_EDGE ( 'NONE', *, *, #29, .F. ) ;
#254 = AXIS2_PLACEMENT_3D ( 'NONE', #242, #54, #144 ) ;
#255 = AXIS2_PLACEMENT_3D ( 'NONE', #204, #267, #145 ) ;
#256 =( NAMED_UNIT ( * ) PLANE_ANGLE_UNIT ( ) SI_UNIT ( $, .RADIAN. ) );
#257 = ORIENTED_EDGE ( 'NONE', *, *, #187, .T. ) ;
#258 = DIRECTION ( 'NONE',  ( -0.000000000000000000, -0.000000000000000000, -1.000000000000000000 ) ) ;
#259 = EDGE_CURVE ( 'NONE', #274, #279, #106, .T. ) ;
#260 = AXIS2_PLACEMENT_3D ( 'NONE', #146, #283, #152 ) ;
#261 = DIRECTION ( 'NONE',  ( 0.000000000000000000, 0.000000000000000000, 1.000000000000000000 ) ) ;
#262 = ORIENTED_EDGE ( 'NONE', *, *, #194, .F. ) ;
#263 = DIRECTION ( 'NONE',  ( -0.000000000000000000, -0.000000000000000000, -1.000000000000000000 ) ) ;
#264 = VERTEX_POINT ( 'NONE', #34 ) ;
#265 = PRODUCT_RELATED_PRODUCT_CATEGORY ( 'detail', '', ( #298 ) ) ;
#266 = CARTESIAN_POINT ( 'NONE',  ( -5.000000000000000000, 0.000000000000000000, 3.000000000000000000 ) ) ;
#267 = DIRECTION ( 'NONE',  ( 0.000000000000000000, 0.000000000000000000, 1.000000000000000000 ) ) ;
#268 = LINE ( 'NONE', #266, #26 ) ;
#269 = PERSON_AND_ORGANIZATION_ROLE ( 'creator' ) ;
#270 = DIRECTION ( 'NONE',  ( 1.000000000000000000, 0.000000000000000000, 0.000000000000000000 ) ) ;
#271 = PERSON_AND_ORGANIZATION_ROLE ( 'creator' ) ;
#272 = FACE_BOUND ( 'NONE', #176, .T. ) ;
#273 = CALENDAR_DATE ( 2022, 7, 7 ) ;
#274 = VERTEX_POINT ( 'NONE', #61 ) ;
#275 = CARTESIAN_POINT ( 'NONE',  ( 0.000000000000000000, 0.000000000000000000, 318.0000000000000000 ) ) ;
#276 = PRODUCT_DEFINITION_SHAPE ( 'NONE', 'NONE',  #213 ) ;
#277 = LOCAL_TIME ( 12, 19, 44.00000000000000000, #35 ) ;
#278 = PERSON_AND_ORGANIZATION ( #209, #245 ) ;
#279 = VERTEX_POINT ( 'NONE', #202 ) ;
#280 = CIRCLE ( 'NONE', #234, 2.700000000000000178 ) ;
#281 = APPROVAL_PERSON_ORGANIZATION ( #178, #304, #173 ) ;
#282 = DIRECTION ( 'NONE',  ( 1.000000000000000000, 0.000000000000000000, 0.000000000000000000 ) ) ;
#283 = DIRECTION ( 'NONE',  ( 0.000000000000000000, 0.000000000000000000, 1.000000000000000000 ) ) ;
#284 = AXIS2_PLACEMENT_3D ( 'NONE', #70, #261, #282 ) ;
#285 = CC_DESIGN_APPROVAL ( #304, ( #67 ) ) ;
#286 = EDGE_CURVE ( 'NONE', #279, #60, #157, .T. ) ;
#287 = CIRCLE ( 'NONE', #195, 2.500000000000000000 ) ;
#288 = FACE_OUTER_BOUND ( 'NONE', #45, .T. ) ;
#289 = PLANE ( 'NONE',  #244 ) ;
#290 = EDGE_LOOP ( 'NONE', ( #72, #150, #38, #154 ) ) ;
#291 = AXIS2_PLACEMENT_3D ( 'NONE', #2, #89, #136 ) ;
#292 = CARTESIAN_POINT ( 'NONE',  ( 0.000000000000000000, 0.000000000000000000, 318.0000000000000000 ) ) ;
#293 = CYLINDRICAL_SURFACE ( 'NONE', #143, 2.500000000000000000 ) ;
#294 = DIRECTION ( 'NONE',  ( -1.000000000000000000, 1.224646799147353207E-16, 0.000000000000000000 ) ) ;
#295 = DIRECTION ( 'NONE',  ( -0.000000000000000000, -0.000000000000000000, -1.000000000000000000 ) ) ;
#296 = APPLICATION_PROTOCOL_DEFINITION ( 'international standard', 'config_control_design', 1994, #196 ) ;
#297 = CARTESIAN_POINT ( 'NONE',  ( 0.000000000000000000, 0.000000000000000000, 3.199999999999980638 ) ) ;
#298 = PRODUCT ( '66ee', '66ee', '', ( #198 ) ) ;
#299 = ORIENTED_EDGE ( 'NONE', *, *, #185, .T. ) ;
#300 = DIRECTION ( 'NONE',  ( -0.000000000000000000, -0.000000000000000000, -1.000000000000000000 ) ) ;
#301 = SHAPE_DEFINITION_REPRESENTATION ( #276, #167 ) ;
#302 = ORIENTED_EDGE ( 'NONE', *, *, #162, .T. ) ;
#303 = FACE_OUTER_BOUND ( 'NONE', #71, .T. ) ;
#304 = APPROVAL ( #17, 'NEURÈENÝ' ) ;
#305 = DIRECTION ( 'NONE',  ( -1.000000000000000000, 0.000000000000000000, 0.000000000000000000 ) ) ;
#306 = ADVANCED_FACE ( 'NONE', ( #272, #58 ), #148, .T. ) ;
#307 = AXIS2_PLACEMENT_3D ( 'NONE', #130, #171, #86 ) ;
ENDSEC;
END-ISO-10303-21;
