ISO-10303-21;
HEADER;
FILE_DESCRIPTION (( 'STEP AP203' ),
    '1' );
FILE_NAME ('5b81.STEP',
    '2023-02-12T10:35:04',
    ( '' ),
    ( '' ),
    'SwSTEP 2.0',
    'SolidWorks 2019',
    '' );
FILE_SCHEMA (( 'CONFIG_CONTROL_DESIGN' ));
ENDSEC;

DATA;
#1 = PERSON_AND_ORGANIZATION ( #236, #11 ) ;
#2 = CC_DESIGN_APPROVAL ( #131, ( #175 ) ) ;
#3 = PERSON_AND_ORGANIZATION ( #236, #11 ) ;
#4 = COORDINATED_UNIVERSAL_TIME_OFFSET ( 1, 0, .AHEAD. ) ;
#5 = ORIENTED_EDGE ( 'NONE', *, *, #220, .F. ) ;
#6 = AXIS2_PLACEMENT_3D ( 'NONE', #52, #130, #209 ) ;
#7 = PERSON_AND_ORGANIZATION ( #236, #11 ) ;
#8 = ORIENTED_EDGE ( 'NONE', *, *, #53, .F. ) ;
#9 = ORIENTED_EDGE ( 'NONE', *, *, #83, .T. ) ;
#10 = ORIENTED_EDGE ( 'NONE', *, *, #21, .F. ) ;
#11 = ORGANIZATION ( 'NEURÈENÝ', 'NEURÈENÝ', '' ) ;
#12 = DIRECTION ( 'NONE',  ( 0.000000000000000000, 0.000000000000000000, 1.000000000000000000 ) ) ;
#13 = LINE ( 'NONE', #93, #122 ) ;
#14 = CYLINDRICAL_SURFACE ( 'NONE', #191, 9.000000000000000000 ) ;
#15 = CIRCLE ( 'NONE', #112, 9.000000000000000000 ) ;
#16 = CC_DESIGN_PERSON_AND_ORGANIZATION_ASSIGNMENT ( #7, #30, ( #80 ) ) ;
#17 = DIRECTION ( 'NONE',  ( 0.000000000000000000, 0.000000000000000000, 1.000000000000000000 ) ) ;
#18 = DIRECTION ( 'NONE',  ( 0.000000000000000000, 0.000000000000000000, 1.000000000000000000 ) ) ;
#19 = FACE_OUTER_BOUND ( 'NONE', #239, .T. ) ;
#20 = APPROVAL_PERSON_ORGANIZATION ( #3, #36, #105 ) ;
#21 = EDGE_CURVE ( 'NONE', #207, #110, #223, .T. ) ;
#22 = APPROVAL_STATUS ( 'not_yet_approved' ) ;
#23 = DATE_AND_TIME ( #194, #108 ) ;
#24 = CIRCLE ( 'NONE', #232, 9.000000000000000000 ) ;
#25 = APPROVAL_STATUS ( 'not_yet_approved' ) ;
#26 = ORIENTED_EDGE ( 'NONE', *, *, #173, .T. ) ;
#27 = DATE_AND_TIME ( #240, #204 ) ;
#28 = EDGE_LOOP ( 'NONE', ( #196, #126 ) ) ;
#29 = ORIENTED_EDGE ( 'NONE', *, *, #152, .T. ) ;
#30 = PERSON_AND_ORGANIZATION_ROLE ( 'creator' ) ;
#31 = ORIENTED_EDGE ( 'NONE', *, *, #152, .F. ) ;
#32 = CC_DESIGN_APPROVAL ( #212, ( #60 ) ) ;
#33 = LINE ( 'NONE', #35, #67 ) ;
#34 = EDGE_LOOP ( 'NONE', ( #88, #31 ) ) ;
#35 = CARTESIAN_POINT ( 'NONE',  ( -12.00000000000000178, 0.000000000000000000, 7.000000000000000000 ) ) ;
#36 = APPROVAL ( #218, 'NEURÈENÝ' ) ;
#37 = FACE_OUTER_BOUND ( 'NONE', #125, .T. ) ;
#38 = DATE_AND_TIME ( #233, #211 ) ;
#39 = DIRECTION ( 'NONE',  ( 0.000000000000000000, 0.000000000000000000, 1.000000000000000000 ) ) ;
#40 = CARTESIAN_POINT ( 'NONE',  ( 0.000000000000000000, 0.000000000000000000, 0.000000000000000000 ) ) ;
#41 = AXIS2_PLACEMENT_3D ( 'NONE', #40, #153, #59 ) ;
#42 =( NAMED_UNIT ( * ) PLANE_ANGLE_UNIT ( ) SI_UNIT ( $, .RADIAN. ) );
#43 = DIRECTION ( 'NONE',  ( -1.000000000000000000, 0.000000000000000000, 0.000000000000000000 ) ) ;
#44 = COORDINATED_UNIVERSAL_TIME_OFFSET ( 1, 0, .AHEAD. ) ;
#45 = ORIENTED_EDGE ( 'NONE', *, *, #136, .T. ) ;
#46 = AXIS2_PLACEMENT_3D ( 'NONE', #163, #247, #231 ) ;
#47 = CC_DESIGN_APPROVAL ( #36, ( #80 ) ) ;
#48 = PRODUCT ( '5b81', '5b81', '', ( #78 ) ) ;
#49 = EDGE_LOOP ( 'NONE', ( #222, #179, #29, #202 ) ) ;
#50 = DIRECTION ( 'NONE',  ( -0.000000000000000000, -0.000000000000000000, -1.000000000000000000 ) ) ;
#51 = CYLINDRICAL_SURFACE ( 'NONE', #139, 12.00000000000000178 ) ;
#52 = CARTESIAN_POINT ( 'NONE',  ( 0.000000000000000000, 0.000000000000000000, 0.000000000000000000 ) ) ;
#53 = EDGE_CURVE ( 'NONE', #110, #221, #33, .T. ) ;
#54 = CARTESIAN_POINT ( 'NONE',  ( -9.000000000000000000, 0.000000000000000000, 315.0000000000000000 ) ) ;
#55 = FACE_OUTER_BOUND ( 'NONE', #28, .T. ) ;
#56 = ADVANCED_FACE ( 'NONE', ( #55 ), #245, .F. ) ;
#57 = CARTESIAN_POINT ( 'NONE',  ( 9.000000000000000000, 1.102182119232617714E-15, 315.0000000000000000 ) ) ;
#58 = DIRECTION ( 'NONE',  ( 0.000000000000000000, 0.000000000000000000, 1.000000000000000000 ) ) ;
#59 = DIRECTION ( 'NONE',  ( 1.000000000000000000, 0.000000000000000000, 0.000000000000000000 ) ) ;
#60 = PRODUCT_DEFINITION ( 'NEZNÁMÝ', '', #80, #92 ) ;
#61 = APPROVAL_DATE_TIME ( #38, #212 ) ;
#62 = ORIENTED_EDGE ( 'NONE', *, *, #136, .F. ) ;
#63 = ADVANCED_FACE ( 'NONE', ( #210 ), #14, .T. ) ;
#64 = ORIENTED_EDGE ( 'NONE', *, *, #166, .T. ) ;
#65 = COORDINATED_UNIVERSAL_TIME_OFFSET ( 1, 0, .AHEAD. ) ;
#66 = VERTEX_POINT ( 'NONE', #185 ) ;
#67 = VECTOR ( 'NONE', #203, 1000.000000000000000 ) ;
#68 = LOCAL_TIME ( 11, 35, 4.000000000000000000, #65 ) ;
#69 = CARTESIAN_POINT ( 'NONE',  ( -9.000000000000000000, 0.000000000000000000, 315.0000000000000000 ) ) ;
#70 = DIRECTION ( 'NONE',  ( 0.000000000000000000, 0.000000000000000000, 1.000000000000000000 ) ) ;
#71 = CLOSED_SHELL ( 'NONE', ( #63, #241, #145, #255, #56, #230, #208 ) ) ;
#72 = DIRECTION ( 'NONE',  ( 0.000000000000000000, 0.000000000000000000, 1.000000000000000000 ) ) ;
#73 = CARTESIAN_POINT ( 'NONE',  ( 0.000000000000000000, 0.000000000000000000, 315.0000000000000000 ) ) ;
#74 = PLANE ( 'NONE',  #85 ) ;
#75 = UNCERTAINTY_MEASURE_WITH_UNIT (LENGTH_MEASURE( 1.000000000000000082E-05 ), #138, 'distance_accuracy_value', 'NONE');
#76 = FACE_BOUND ( 'NONE', #34, .T. ) ;
#77 =( NAMED_UNIT ( * ) SI_UNIT ( $, .STERADIAN. ) SOLID_ANGLE_UNIT ( ) );
#78 = MECHANICAL_CONTEXT ( 'NONE', #214, 'mechanical' ) ;
#79 = COORDINATED_UNIVERSAL_TIME_OFFSET ( 1, 0, .AHEAD. ) ;
#80 = PRODUCT_DEFINITION_FORMATION_WITH_SPECIFIED_SOURCE ( 'LIBOVOLNÝ', '', #48, .NOT_KNOWN. ) ;
#81 = EDGE_CURVE ( 'NONE', #110, #207, #133, .T. ) ;
#82 = DIRECTION ( 'NONE',  ( -0.000000000000000000, -0.000000000000000000, -1.000000000000000000 ) ) ;
#83 = EDGE_CURVE ( 'NONE', #106, #66, #24, .T. ) ;
#84 = ADVANCED_BREP_SHAPE_REPRESENTATION ( '5b81', ( #181, #41 ), #243 ) ;
#85 = AXIS2_PLACEMENT_3D ( 'NONE', #119, #58, #213 ) ;
#86 = AXIS2_PLACEMENT_3D ( 'NONE', #249, #72, #251 ) ;
#87 = PERSON_AND_ORGANIZATION ( #236, #11 ) ;
#88 = ORIENTED_EDGE ( 'NONE', *, *, #143, .F. ) ;
#89 = AXIS2_PLACEMENT_3D ( 'NONE', #187, #17, #95 ) ;
#90 = DIRECTION ( 'NONE',  ( 1.000000000000000000, 0.000000000000000000, -0.000000000000000000 ) ) ;
#91 = CARTESIAN_POINT ( 'NONE',  ( 0.000000000000000000, 0.000000000000000000, 315.0000000000000000 ) ) ;
#92 = DESIGN_CONTEXT ( 'detailed design', #200, 'design' ) ;
#93 = CARTESIAN_POINT ( 'NONE',  ( 12.00000000000000178, 1.469576158976824144E-15, 7.000000000000000000 ) ) ;
#94 = AXIS2_PLACEMENT_3D ( 'NONE', #184, #12, #90 ) ;
#95 = DIRECTION ( 'NONE',  ( 1.000000000000000000, 0.000000000000000000, 0.000000000000000000 ) ) ;
#96 = LINE ( 'NONE', #54, #206 ) ;
#97 = CYLINDRICAL_SURFACE ( 'NONE', #98, 12.00000000000000178 ) ;
#98 = AXIS2_PLACEMENT_3D ( 'NONE', #100, #192, #43 ) ;
#99 = CYLINDRICAL_SURFACE ( 'NONE', #199, 9.000000000000000000 ) ;
#100 = CARTESIAN_POINT ( 'NONE',  ( 0.000000000000000000, 0.000000000000000000, 7.000000000000000000 ) ) ;
#101 = EDGE_CURVE ( 'NONE', #66, #106, #15, .T. ) ;
#102 = APPROVAL_ROLE ( '' ) ;
#103 = LINE ( 'NONE', #57, #188 ) ;
#104 = PRODUCT_DEFINITION_SHAPE ( 'NONE', 'NONE',  #60 ) ;
#105 = APPROVAL_ROLE ( '' ) ;
#106 = VERTEX_POINT ( 'NONE', #69 ) ;
#107 = DATE_AND_TIME ( #123, #215 ) ;
#108 = LOCAL_TIME ( 11, 35, 4.000000000000000000, #217 ) ;
#109 = SECURITY_CLASSIFICATION_LEVEL ( 'unclassified' ) ;
#110 = VERTEX_POINT ( 'NONE', #111 ) ;
#111 = CARTESIAN_POINT ( 'NONE',  ( -12.00000000000000178, 0.000000000000000000, 7.000000000000000000 ) ) ;
#112 = AXIS2_PLACEMENT_3D ( 'NONE', #91, #70, #229 ) ;
#113 = ORIENTED_EDGE ( 'NONE', *, *, #83, .F. ) ;
#114 = CARTESIAN_POINT ( 'NONE',  ( 0.000000000000000000, 0.000000000000000000, 7.000000000000000000 ) ) ;
#115 = DIRECTION ( 'NONE',  ( -0.000000000000000000, -0.000000000000000000, -1.000000000000000000 ) ) ;
#116 = CIRCLE ( 'NONE', #89, 12.00000000000000178 ) ;
#117 = DIRECTION ( 'NONE',  ( 1.000000000000000000, 0.000000000000000000, 0.000000000000000000 ) ) ;
#118 = PERSON_AND_ORGANIZATION_ROLE ( 'creator' ) ;
#119 = CARTESIAN_POINT ( 'NONE',  ( 0.000000000000000000, 0.000000000000000000, 315.0000000000000000 ) ) ;
#120 = PRODUCT_RELATED_PRODUCT_CATEGORY ( 'detail', '', ( #48 ) ) ;
#121 = DIRECTION ( 'NONE',  ( 1.000000000000000000, 0.000000000000000000, -0.000000000000000000 ) ) ;
#122 = VECTOR ( 'NONE', #50, 1000.000000000000000 ) ;
#123 = CALENDAR_DATE ( 2023, 12, 2 ) ;
#124 = ORIENTED_EDGE ( 'NONE', *, *, #21, .T. ) ;
#125 = EDGE_LOOP ( 'NONE', ( #9, #198 ) ) ;
#126 = ORIENTED_EDGE ( 'NONE', *, *, #166, .F. ) ;
#127 = DIRECTION ( 'NONE',  ( -0.000000000000000000, -0.000000000000000000, -1.000000000000000000 ) ) ;
#128 = CIRCLE ( 'NONE', #6, 12.00000000000000178 ) ;
#129 = FACE_OUTER_BOUND ( 'NONE', #149, .T. ) ;
#130 = DIRECTION ( 'NONE',  ( 0.000000000000000000, 0.000000000000000000, 1.000000000000000000 ) ) ;
#131 = APPROVAL ( #25, 'NEURÈENÝ' ) ;
#132 = CARTESIAN_POINT ( 'NONE',  ( 12.00000000000000178, 1.469576158976824144E-15, 7.000000000000000000 ) ) ;
#133 = CIRCLE ( 'NONE', #242, 12.00000000000000178 ) ;
#134 = PERSON_AND_ORGANIZATION ( #236, #11 ) ;
#135 = CARTESIAN_POINT ( 'NONE',  ( 0.000000000000000000, 0.000000000000000000, 7.000000000000000000 ) ) ;
#136 = EDGE_CURVE ( 'NONE', #207, #155, #13, .T. ) ;
#137 = PERSON_AND_ORGANIZATION ( #236, #11 ) ;
#138 =( LENGTH_UNIT ( ) NAMED_UNIT ( * ) SI_UNIT ( .MILLI., .METRE. ) );
#139 = AXIS2_PLACEMENT_3D ( 'NONE', #114, #250, #186 ) ;
#140 = PERSON_AND_ORGANIZATION_ROLE ( 'classification_officer' ) ;
#141 = EDGE_LOOP ( 'NONE', ( #225, #124 ) ) ;
#142 = ORIENTED_EDGE ( 'NONE', *, *, #143, .T. ) ;
#143 = EDGE_CURVE ( 'NONE', #147, #182, #183, .T. ) ;
#144 = APPROVAL_DATE_TIME ( #235, #131 ) ;
#145 = ADVANCED_FACE ( 'NONE', ( #129 ), #51, .T. ) ;
#146 = CARTESIAN_POINT ( 'NONE',  ( 0.000000000000000000, 0.000000000000000000, 7.000000000000000000 ) ) ;
#147 = VERTEX_POINT ( 'NONE', #164 ) ;
#148 = CARTESIAN_POINT ( 'NONE',  ( 12.00000000000000178, 1.469576158976824144E-15, 0.000000000000000000 ) ) ;
#149 = EDGE_LOOP ( 'NONE', ( #62, #177, #244, #26 ) ) ;
#150 = DIRECTION ( 'NONE',  ( 0.000000000000000000, 0.000000000000000000, 1.000000000000000000 ) ) ;
#151 = CC_DESIGN_DATE_AND_TIME_ASSIGNMENT ( #27, #219, ( #175 ) ) ;
#152 = EDGE_CURVE ( 'NONE', #182, #147, #253, .T. ) ;
#153 = DIRECTION ( 'NONE',  ( 0.000000000000000000, 0.000000000000000000, 1.000000000000000000 ) ) ;
#154 = APPROVAL_ROLE ( '' ) ;
#155 = VERTEX_POINT ( 'NONE', #148 ) ;
#156 = CALENDAR_DATE ( 2023, 12, 2 ) ;
#157 = CC_DESIGN_PERSON_AND_ORGANIZATION_ASSIGNMENT ( #137, #216, ( #48 ) ) ;
#158 = PERSON_AND_ORGANIZATION ( #236, #11 ) ;
#159 = PERSON_AND_ORGANIZATION_ROLE ( 'design_supplier' ) ;
#160 = EDGE_LOOP ( 'NONE', ( #5, #113, #238, #142 ) ) ;
#161 = CC_DESIGN_PERSON_AND_ORGANIZATION_ASSIGNMENT ( #201, #140, ( #175 ) ) ;
#162 = DIRECTION ( 'NONE',  ( -1.000000000000000000, 0.000000000000000000, 0.000000000000000000 ) ) ;
#163 = CARTESIAN_POINT ( 'NONE',  ( 0.000000000000000000, 0.000000000000000000, 7.000000000000000000 ) ) ;
#164 = CARTESIAN_POINT ( 'NONE',  ( -9.000000000000000000, 0.000000000000000000, 7.000000000000000000 ) ) ;
#165 = CARTESIAN_POINT ( 'NONE',  ( 9.000000000000000000, 1.102182119232617714E-15, 7.000000000000000000 ) ) ;
#166 = EDGE_CURVE ( 'NONE', #155, #221, #128, .T. ) ;
#167 = CARTESIAN_POINT ( 'NONE',  ( 0.000000000000000000, 0.000000000000000000, 7.000000000000000000 ) ) ;
#168 = CARTESIAN_POINT ( 'NONE',  ( -12.00000000000000178, 0.000000000000000000, 0.000000000000000000 ) ) ;
#169 = EDGE_CURVE ( 'NONE', #106, #147, #96, .T. ) ;
#170 = DIRECTION ( 'NONE',  ( -0.000000000000000000, -0.000000000000000000, -1.000000000000000000 ) ) ;
#171 = APPLICATION_PROTOCOL_DEFINITION ( 'international standard', 'config_control_design', 1994, #214 ) ;
#172 = APPLICATION_PROTOCOL_DEFINITION ( 'international standard', 'config_control_design', 1994, #200 ) ;
#173 = EDGE_CURVE ( 'NONE', #221, #155, #116, .T. ) ;
#174 = AXIS2_PLACEMENT_3D ( 'NONE', #146, #150, #117 ) ;
#175 = SECURITY_CLASSIFICATION ( '', '', #109 ) ;
#176 = DATE_TIME_ROLE ( 'creation_date' ) ;
#177 = ORIENTED_EDGE ( 'NONE', *, *, #81, .F. ) ;
#178 = SHAPE_DEFINITION_REPRESENTATION ( #104, #84 ) ;
#179 = ORIENTED_EDGE ( 'NONE', *, *, #220, .T. ) ;
#180 = CC_DESIGN_SECURITY_CLASSIFICATION ( #175, ( #80 ) ) ;
#181 = MANIFOLD_SOLID_BREP ( 'Pøidat vysunutím3', #71 ) ;
#182 = VERTEX_POINT ( 'NONE', #165 ) ;
#183 = CIRCLE ( 'NONE', #46, 9.000000000000000000 ) ;
#184 = CARTESIAN_POINT ( 'NONE',  ( 0.000000000000000000, 0.000000000000000000, 0.000000000000000000 ) ) ;
#185 = CARTESIAN_POINT ( 'NONE',  ( 9.000000000000000000, 1.102182119232617714E-15, 315.0000000000000000 ) ) ;
#186 = DIRECTION ( 'NONE',  ( -1.000000000000000000, 0.000000000000000000, 0.000000000000000000 ) ) ;
#187 = CARTESIAN_POINT ( 'NONE',  ( 0.000000000000000000, 0.000000000000000000, 0.000000000000000000 ) ) ;
#188 = VECTOR ( 'NONE', #82, 1000.000000000000000 ) ;
#189 = DIRECTION ( 'NONE',  ( 0.000000000000000000, 0.000000000000000000, 1.000000000000000000 ) ) ;
#190 = FACE_OUTER_BOUND ( 'NONE', #160, .T. ) ;
#191 = AXIS2_PLACEMENT_3D ( 'NONE', #228, #127, #162 ) ;
#192 = DIRECTION ( 'NONE',  ( -0.000000000000000000, -0.000000000000000000, -1.000000000000000000 ) ) ;
#193 = FACE_OUTER_BOUND ( 'NONE', #141, .T. ) ;
#194 = CALENDAR_DATE ( 2023, 12, 2 ) ;
#195 = APPROVAL_DATE_TIME ( #107, #36 ) ;
#196 = ORIENTED_EDGE ( 'NONE', *, *, #173, .F. ) ;
#197 = CC_DESIGN_PERSON_AND_ORGANIZATION_ASSIGNMENT ( #87, #159, ( #80 ) ) ;
#198 = ORIENTED_EDGE ( 'NONE', *, *, #101, .T. ) ;
#199 = AXIS2_PLACEMENT_3D ( 'NONE', #234, #170, #254 ) ;
#200 = APPLICATION_CONTEXT ( 'configuration controlled 3d designs of mechanical parts and assemblies' ) ;
#201 = PERSON_AND_ORGANIZATION ( #236, #11 ) ;
#202 = ORIENTED_EDGE ( 'NONE', *, *, #169, .F. ) ;
#203 = DIRECTION ( 'NONE',  ( -0.000000000000000000, -0.000000000000000000, -1.000000000000000000 ) ) ;
#204 = LOCAL_TIME ( 11, 35, 4.000000000000000000, #4 ) ;
#205 = DIRECTION ( 'NONE',  ( 1.000000000000000000, 0.000000000000000000, 0.000000000000000000 ) ) ;
#206 = VECTOR ( 'NONE', #115, 1000.000000000000000 ) ;
#207 = VERTEX_POINT ( 'NONE', #132 ) ;
#208 = ADVANCED_FACE ( 'NONE', ( #37 ), #74, .T. ) ;
#209 = DIRECTION ( 'NONE',  ( 1.000000000000000000, 0.000000000000000000, 0.000000000000000000 ) ) ;
#210 = FACE_OUTER_BOUND ( 'NONE', #49, .T. ) ;
#211 = LOCAL_TIME ( 11, 35, 4.000000000000000000, #79 ) ;
#212 = APPROVAL ( #22, 'NEURÈENÝ' ) ;
#213 = DIRECTION ( 'NONE',  ( 1.000000000000000000, 0.000000000000000000, -0.000000000000000000 ) ) ;
#214 = APPLICATION_CONTEXT ( 'configuration controlled 3d designs of mechanical parts and assemblies' ) ;
#215 = LOCAL_TIME ( 11, 35, 4.000000000000000000, #44 ) ;
#216 = PERSON_AND_ORGANIZATION_ROLE ( 'design_owner' ) ;
#217 = COORDINATED_UNIVERSAL_TIME_OFFSET ( 1, 0, .AHEAD. ) ;
#218 = APPROVAL_STATUS ( 'not_yet_approved' ) ;
#219 = DATE_TIME_ROLE ( 'classification_date' ) ;
#220 = EDGE_CURVE ( 'NONE', #66, #182, #103, .T. ) ;
#221 = VERTEX_POINT ( 'NONE', #168 ) ;
#222 = ORIENTED_EDGE ( 'NONE', *, *, #101, .F. ) ;
#223 = CIRCLE ( 'NONE', #174, 12.00000000000000178 ) ;
#224 = APPROVAL_PERSON_ORGANIZATION ( #158, #131, #154 ) ;
#225 = ORIENTED_EDGE ( 'NONE', *, *, #81, .T. ) ;
#226 = DIRECTION ( 'NONE',  ( 1.000000000000000000, 0.000000000000000000, 0.000000000000000000 ) ) ;
#227 = CC_DESIGN_PERSON_AND_ORGANIZATION_ASSIGNMENT ( #134, #118, ( #60 ) ) ;
#228 = CARTESIAN_POINT ( 'NONE',  ( 0.000000000000000000, 0.000000000000000000, 315.0000000000000000 ) ) ;
#229 = DIRECTION ( 'NONE',  ( 1.000000000000000000, 0.000000000000000000, 0.000000000000000000 ) ) ;
#230 = ADVANCED_FACE ( 'NONE', ( #190 ), #99, .T. ) ;
#231 = DIRECTION ( 'NONE',  ( 1.000000000000000000, 0.000000000000000000, 0.000000000000000000 ) ) ;
#232 = AXIS2_PLACEMENT_3D ( 'NONE', #73, #18, #226 ) ;
#233 = CALENDAR_DATE ( 2023, 12, 2 ) ;
#234 = CARTESIAN_POINT ( 'NONE',  ( 0.000000000000000000, 0.000000000000000000, 315.0000000000000000 ) ) ;
#235 = DATE_AND_TIME ( #156, #68 ) ;
#236 = PERSON ( 'NEURÈENÝ', 'NEURÈENÝ', 'NEURÈENÝ', ('NEURÈENÝ'), ('NEURÈENÝ'), ('NEURÈENÝ') ) ;
#237 = APPROVAL_PERSON_ORGANIZATION ( #1, #212, #102 ) ;
#238 = ORIENTED_EDGE ( 'NONE', *, *, #169, .T. ) ;
#239 = EDGE_LOOP ( 'NONE', ( #10, #45, #64, #8 ) ) ;
#240 = CALENDAR_DATE ( 2023, 12, 2 ) ;
#241 = ADVANCED_FACE ( 'NONE', ( #19 ), #97, .T. ) ;
#242 = AXIS2_PLACEMENT_3D ( 'NONE', #167, #189, #205 ) ;
#243 =( GEOMETRIC_REPRESENTATION_CONTEXT ( 3 ) GLOBAL_UNCERTAINTY_ASSIGNED_CONTEXT ( ( #75 ) ) GLOBAL_UNIT_ASSIGNED_CONTEXT ( ( #138, #42, #77 ) ) REPRESENTATION_CONTEXT ( 'NONE', 'WORKASPACE' ) );
#244 = ORIENTED_EDGE ( 'NONE', *, *, #53, .T. ) ;
#245 = PLANE ( 'NONE',  #94 ) ;
#246 = CC_DESIGN_DATE_AND_TIME_ASSIGNMENT ( #23, #176, ( #60 ) ) ;
#247 = DIRECTION ( 'NONE',  ( 0.000000000000000000, 0.000000000000000000, 1.000000000000000000 ) ) ;
#248 = AXIS2_PLACEMENT_3D ( 'NONE', #135, #39, #121 ) ;
#249 = CARTESIAN_POINT ( 'NONE',  ( 0.000000000000000000, 0.000000000000000000, 7.000000000000000000 ) ) ;
#250 = DIRECTION ( 'NONE',  ( -0.000000000000000000, -0.000000000000000000, -1.000000000000000000 ) ) ;
#251 = DIRECTION ( 'NONE',  ( 1.000000000000000000, 0.000000000000000000, 0.000000000000000000 ) ) ;
#252 = PLANE ( 'NONE',  #248 ) ;
#253 = CIRCLE ( 'NONE', #86, 9.000000000000000000 ) ;
#254 = DIRECTION ( 'NONE',  ( -1.000000000000000000, 0.000000000000000000, 0.000000000000000000 ) ) ;
#255 = ADVANCED_FACE ( 'NONE', ( #76, #193 ), #252, .T. ) ;
ENDSEC;
END-ISO-10303-21;
