ISO-10303-21;
HEADER;
FILE_DESCRIPTION (( 'STEP AP203' ),
    '1' );
FILE_NAME ('2962.STEP',
    '2022-07-07T09:35:19',
    ( '' ),
    ( '' ),
    'SwSTEP 2.0',
    'SolidWorks 2019',
    '' );
FILE_SCHEMA (( 'CONFIG_CONTROL_DESIGN' ));
ENDSEC;

DATA;
#1 = DATE_AND_TIME ( #112, #113 ) ;
#2 =( GEOMETRIC_REPRESENTATION_CONTEXT ( 3 ) GLOBAL_UNCERTAINTY_ASSIGNED_CONTEXT ( ( #97 ) ) GLOBAL_UNIT_ASSIGNED_CONTEXT ( ( #158, #182, #286 ) ) REPRESENTATION_CONTEXT ( 'NONE', 'WORKASPACE' ) );
#3 = AXIS2_PLACEMENT_3D ( 'NONE', #80, #104, #150 ) ;
#4 = PERSON_AND_ORGANIZATION ( #74, #79 ) ;
#5 = DIRECTION ( 'NONE',  ( 1.000000000000000000, 0.000000000000000000, 0.000000000000000000 ) ) ;
#6 = ORIENTED_EDGE ( 'NONE', *, *, #36, .T. ) ;
#7 = VERTEX_POINT ( 'NONE', #122 ) ;
#8 = DIRECTION ( 'NONE',  ( 1.000000000000000000, 0.000000000000000000, 0.000000000000000000 ) ) ;
#9 = DIRECTION ( 'NONE',  ( -1.000000000000000000, 0.000000000000000000, 0.000000000000000000 ) ) ;
#10 = AXIS2_PLACEMENT_3D ( 'NONE', #13, #223, #58 ) ;
#11 = CARTESIAN_POINT ( 'NONE',  ( -9.199999999999999289, 1.126675055215564822E-15, 6.999999999999992006 ) ) ;
#12 = ORIENTED_EDGE ( 'NONE', *, *, #277, .F. ) ;
#13 = CARTESIAN_POINT ( 'NONE',  ( 0.000000000000000000, 0.000000000000000000, 7.000000000000000000 ) ) ;
#14 = CYLINDRICAL_SURFACE ( 'NONE', #195, 12.00000000000000178 ) ;
#15 = CARTESIAN_POINT ( 'NONE',  ( -9.199999999999999289, 1.126675055215564822E-15, 7.199999999999984190 ) ) ;
#16 = CC_DESIGN_PERSON_AND_ORGANIZATION_ASSIGNMENT ( #4, #88, ( #295 ) ) ;
#17 = DIRECTION ( 'NONE',  ( -1.000000000000000000, 1.224646799147353207E-16, 0.000000000000000000 ) ) ;
#18 = EDGE_CURVE ( 'NONE', #76, #67, #191, .T. ) ;
#19 = DATE_AND_TIME ( #285, #284 ) ;
#20 = COORDINATED_UNIVERSAL_TIME_OFFSET ( 1, 0, .AHEAD. ) ;
#21 = EDGE_LOOP ( 'NONE', ( #31, #146, #215, #255 ) ) ;
#22 = LOCAL_TIME ( 11, 35, 19.00000000000000000, #20 ) ;
#23 = CIRCLE ( 'NONE', #72, 9.000000000000000000 ) ;
#24 = ORIENTED_EDGE ( 'NONE', *, *, #125, .T. ) ;
#25 = ORIENTED_EDGE ( 'NONE', *, *, #200, .T. ) ;
#26 = EDGE_LOOP ( 'NONE', ( #298, #6, #293, #61 ) ) ;
#27 = ORIENTED_EDGE ( 'NONE', *, *, #111, .F. ) ;
#28 = APPROVAL ( #137, 'NEURÈENÝ' ) ;
#29 = CARTESIAN_POINT ( 'NONE',  ( 0.000000000000000000, 0.000000000000000000, 0.000000000000000000 ) ) ;
#30 = CIRCLE ( 'NONE', #204, 9.000000000000000000 ) ;
#31 = ORIENTED_EDGE ( 'NONE', *, *, #200, .F. ) ;
#32 = PLANE ( 'NONE',  #179 ) ;
#33 = DIRECTION ( 'NONE',  ( -1.000000000000000000, 0.000000000000000000, 0.000000000000000000 ) ) ;
#34 = DIRECTION ( 'NONE',  ( 1.000000000000000000, 0.000000000000000000, 0.000000000000000000 ) ) ;
#35 = AXIS2_PLACEMENT_3D ( 'NONE', #222, #149, #56 ) ;
#36 = EDGE_CURVE ( 'NONE', #160, #281, #168, .T. ) ;
#37 = DIRECTION ( 'NONE',  ( 0.000000000000000000, 0.000000000000000000, 1.000000000000000000 ) ) ;
#38 = CARTESIAN_POINT ( 'NONE',  ( 12.00000000000000178, 1.469576158976824144E-15, 0.000000000000000000 ) ) ;
#39 = EDGE_LOOP ( 'NONE', ( #188, #307, #91, #271 ) ) ;
#40 = COORDINATED_UNIVERSAL_TIME_OFFSET ( 1, 0, .AHEAD. ) ;
#41 = DIRECTION ( 'NONE',  ( 1.000000000000000000, 0.000000000000000000, 0.000000000000000000 ) ) ;
#42 = COORDINATED_UNIVERSAL_TIME_OFFSET ( 1, 0, .AHEAD. ) ;
#43 = ORIENTED_EDGE ( 'NONE', *, *, #18, .F. ) ;
#44 = AXIS2_PLACEMENT_3D ( 'NONE', #196, #103, #8 ) ;
#45 = APPLICATION_PROTOCOL_DEFINITION ( 'international standard', 'config_control_design', 1994, #95 ) ;
#46 = EDGE_LOOP ( 'NONE', ( #27, #12 ) ) ;
#47 = CARTESIAN_POINT ( 'NONE',  ( -12.00000000000000178, 0.000000000000000000, 7.000000000000000000 ) ) ;
#48 = DIRECTION ( 'NONE',  ( -0.000000000000000000, -0.000000000000000000, -1.000000000000000000 ) ) ;
#49 = EDGE_CURVE ( 'NONE', #7, #144, #266, .T. ) ;
#50 = DIRECTION ( 'NONE',  ( 1.000000000000000000, 0.000000000000000000, 0.000000000000000000 ) ) ;
#51 = CARTESIAN_POINT ( 'NONE',  ( 9.000000000000000000, 1.102182119232617714E-15, 807.0000000000000000 ) ) ;
#52 = DATE_AND_TIME ( #138, #133 ) ;
#53 = ORIENTED_EDGE ( 'NONE', *, *, #208, .F. ) ;
#54 = APPROVAL_PERSON_ORGANIZATION ( #87, #177, #156 ) ;
#55 = CARTESIAN_POINT ( 'NONE',  ( 12.00000000000000178, 1.469576158976824144E-15, 7.000000000000000000 ) ) ;
#56 = DIRECTION ( 'NONE',  ( 1.000000000000000000, 0.000000000000000000, 0.000000000000000000 ) ) ;
#57 = DIRECTION ( 'NONE',  ( -0.000000000000000000, -0.000000000000000000, -1.000000000000000000 ) ) ;
#58 = DIRECTION ( 'NONE',  ( 1.000000000000000000, 0.000000000000000000, 0.000000000000000000 ) ) ;
#59 = CARTESIAN_POINT ( 'NONE',  ( 0.000000000000000000, 0.000000000000000000, 7.199999999999984190 ) ) ;
#60 = APPROVAL_STATUS ( 'not_yet_approved' ) ;
#61 = ORIENTED_EDGE ( 'NONE', *, *, #142, .F. ) ;
#62 = LOCAL_TIME ( 11, 35, 19.00000000000000000, #230 ) ;
#63 = CIRCLE ( 'NONE', #242, 12.00000000000000178 ) ;
#64 = APPROVAL_STATUS ( 'not_yet_approved' ) ;
#65 = VERTEX_POINT ( 'NONE', #246 ) ;
#66 = DIRECTION ( 'NONE',  ( 0.000000000000000000, 0.000000000000000000, 1.000000000000000000 ) ) ;
#67 = VERTEX_POINT ( 'NONE', #11 ) ;
#68 = ORIENTED_EDGE ( 'NONE', *, *, #181, .T. ) ;
#69 = ORIENTED_EDGE ( 'NONE', *, *, #96, .F. ) ;
#70 = CARTESIAN_POINT ( 'NONE',  ( 0.000000000000000000, 0.000000000000000000, 807.0000000000000000 ) ) ;
#71 = CARTESIAN_POINT ( 'NONE',  ( 0.000000000000000000, 0.000000000000000000, 0.000000000000000000 ) ) ;
#72 = AXIS2_PLACEMENT_3D ( 'NONE', #226, #128, #154 ) ;
#73 = ORIENTED_EDGE ( 'NONE', *, *, #265, .T. ) ;
#74 = PERSON ( 'NEURÈENÝ', 'NEURÈENÝ', 'NEURÈENÝ', ('NEURÈENÝ'), ('NEURÈENÝ'), ('NEURÈENÝ') ) ;
#75 = CC_DESIGN_DATE_AND_TIME_ASSIGNMENT ( #1, #90, ( #167 ) ) ;
#76 = VERTEX_POINT ( 'NONE', #98 ) ;
#77 = DIRECTION ( 'NONE',  ( 0.000000000000000000, 0.000000000000000000, 1.000000000000000000 ) ) ;
#78 = PRODUCT_DEFINITION ( 'NEZNÁMÝ', '', #295, #290 ) ;
#79 = ORGANIZATION ( 'NEURÈENÝ', 'NEURÈENÝ', '' ) ;
#80 = CARTESIAN_POINT ( 'NONE',  ( 0.000000000000000000, 0.000000000000000000, 7.199999999999984190 ) ) ;
#81 = VECTOR ( 'NONE', #171, 1000.000000000000000 ) ;
#82 = DIRECTION ( 'NONE',  ( 1.224646799147353207E-16, 1.000000000000000000, -0.000000000000000000 ) ) ;
#83 = DIRECTION ( 'NONE',  ( -0.000000000000000000, -0.000000000000000000, -1.000000000000000000 ) ) ;
#84 = AXIS2_PLACEMENT_3D ( 'NONE', #235, #66, #41 ) ;
#85 = CARTESIAN_POINT ( 'NONE',  ( 0.000000000000000000, 0.000000000000000000, 7.000000000000000000 ) ) ;
#86 = AXIS2_PLACEMENT_3D ( 'NONE', #71, #270, #221 ) ;
#87 = PERSON_AND_ORGANIZATION ( #74, #79 ) ;
#88 = PERSON_AND_ORGANIZATION_ROLE ( 'creator' ) ;
#89 = ADVANCED_FACE ( 'NONE', ( #218 ), #99, .F. ) ;
#90 = DATE_TIME_ROLE ( 'classification_date' ) ;
#91 = ORIENTED_EDGE ( 'NONE', *, *, #142, .T. ) ;
#92 = AXIS2_PLACEMENT_3D ( 'NONE', #197, #132, #5 ) ;
#93 = SECURITY_CLASSIFICATION_LEVEL ( 'unclassified' ) ;
#94 = EDGE_LOOP ( 'NONE', ( #148, #116, #283, #53 ) ) ;
#95 = APPLICATION_CONTEXT ( 'configuration controlled 3d designs of mechanical parts and assemblies' ) ;
#96 = EDGE_CURVE ( 'NONE', #260, #118, #299, .T. ) ;
#97 = UNCERTAINTY_MEASURE_WITH_UNIT (LENGTH_MEASURE( 1.000000000000000082E-05 ), #158, 'distance_accuracy_value', 'NONE');
#98 = CARTESIAN_POINT ( 'NONE',  ( 9.199999999999999289, 0.000000000000000000, 6.999999999999992006 ) ) ;
#99 = PLANE ( 'NONE',  #86 ) ;
#100 = EDGE_CURVE ( 'NONE', #118, #76, #145, .T. ) ;
#101 = LINE ( 'NONE', #123, #289 ) ;
#102 = AXIS2_PLACEMENT_3D ( 'NONE', #15, #82, #17 ) ;
#103 = DIRECTION ( 'NONE',  ( -0.000000000000000000, -0.000000000000000000, -1.000000000000000000 ) ) ;
#104 = DIRECTION ( 'NONE',  ( 0.000000000000000000, 0.000000000000000000, 1.000000000000000000 ) ) ;
#105 = CIRCLE ( 'NONE', #184, 9.000000000000000000 ) ;
#106 = FACE_BOUND ( 'NONE', #219, .T. ) ;
#107 = DIRECTION ( 'NONE',  ( -0.000000000000000000, -0.000000000000000000, -1.000000000000000000 ) ) ;
#108 = CARTESIAN_POINT ( 'NONE',  ( 0.000000000000000000, 0.000000000000000000, 0.000000000000000000 ) ) ;
#109 = APPROVAL_DATE_TIME ( #19, #28 ) ;
#110 = DATE_AND_TIME ( #211, #62 ) ;
#111 = EDGE_CURVE ( 'NONE', #65, #281, #305, .T. ) ;
#112 = CALENDAR_DATE ( 2022, 7, 7 ) ;
#113 = LOCAL_TIME ( 11, 35, 19.00000000000000000, #40 ) ;
#114 = CALENDAR_DATE ( 2022, 7, 7 ) ;
#115 = CIRCLE ( 'NONE', #35, 12.00000000000000178 ) ;
#116 = ORIENTED_EDGE ( 'NONE', *, *, #247, .F. ) ;
#117 = PRODUCT ( '2962', '2962', '', ( #261 ) ) ;
#118 = VERTEX_POINT ( 'NONE', #294 ) ;
#119 = CC_DESIGN_APPROVAL ( #28, ( #78 ) ) ;
#120 = DIRECTION ( 'NONE',  ( 0.000000000000000000, 0.000000000000000000, 1.000000000000000000 ) ) ;
#121 = VERTEX_POINT ( 'NONE', #47 ) ;
#122 = CARTESIAN_POINT ( 'NONE',  ( -9.000000000000000000, 0.000000000000000000, 807.0000000000000000 ) ) ;
#123 = CARTESIAN_POINT ( 'NONE',  ( -12.00000000000000178, 0.000000000000000000, 7.000000000000000000 ) ) ;
#124 = APPROVAL_PERSON_ORGANIZATION ( #185, #269, #186 ) ;
#125 = EDGE_CURVE ( 'NONE', #144, #118, #30, .T. ) ;
#126 = DIRECTION ( 'NONE',  ( -0.000000000000000000, -0.000000000000000000, -1.000000000000000000 ) ) ;
#127 = FACE_OUTER_BOUND ( 'NONE', #94, .T. ) ;
#128 = DIRECTION ( 'NONE',  ( 0.000000000000000000, 0.000000000000000000, 1.000000000000000000 ) ) ;
#129 = DIRECTION ( 'NONE',  ( 1.000000000000000000, 0.000000000000000000, -0.000000000000000000 ) ) ;
#130 = DIRECTION ( 'NONE',  ( 0.000000000000000000, 0.000000000000000000, 1.000000000000000000 ) ) ;
#131 = CC_DESIGN_PERSON_AND_ORGANIZATION_ASSIGNMENT ( #282, #258, ( #167 ) ) ;
#132 = DIRECTION ( 'NONE',  ( 0.000000000000000000, 0.000000000000000000, 1.000000000000000000 ) ) ;
#133 = LOCAL_TIME ( 11, 35, 19.00000000000000000, #42 ) ;
#134 = ADVANCED_FACE ( 'NONE', ( #192 ), #240, .T. ) ;
#135 = PERSON_AND_ORGANIZATION ( #74, #79 ) ;
#136 = PERSON_AND_ORGANIZATION_ROLE ( 'creator' ) ;
#137 = APPROVAL_STATUS ( 'not_yet_approved' ) ;
#138 = CALENDAR_DATE ( 2022, 7, 7 ) ;
#139 = CIRCLE ( 'NONE', #92, 9.000000000000000000 ) ;
#140 = PERSON_AND_ORGANIZATION ( #74, #79 ) ;
#141 = CARTESIAN_POINT ( 'NONE',  ( 0.000000000000000000, 0.000000000000000000, 7.199999999999984190 ) ) ;
#142 = EDGE_CURVE ( 'NONE', #121, #65, #101, .T. ) ;
#143 = APPROVAL_PERSON_ORGANIZATION ( #140, #28, #206 ) ;
#144 = VERTEX_POINT ( 'NONE', #176 ) ;
#145 = CIRCLE ( 'NONE', #220, 0.1999999999999996503 ) ;
#146 = ORIENTED_EDGE ( 'NONE', *, *, #96, .T. ) ;
#147 = EDGE_LOOP ( 'NONE', ( #68, #243 ) ) ;
#148 = ORIENTED_EDGE ( 'NONE', *, *, #265, .F. ) ;
#149 = DIRECTION ( 'NONE',  ( 0.000000000000000000, 0.000000000000000000, 1.000000000000000000 ) ) ;
#150 = DIRECTION ( 'NONE',  ( 1.000000000000000000, 0.000000000000000000, 0.000000000000000000 ) ) ;
#151 = DIRECTION ( 'NONE',  ( -0.000000000000000000, -0.000000000000000000, -1.000000000000000000 ) ) ;
#152 = CC_DESIGN_DATE_AND_TIME_ASSIGNMENT ( #205, #306, ( #78 ) ) ;
#153 = CIRCLE ( 'NONE', #102, 0.2000000000000005107 ) ;
#154 = DIRECTION ( 'NONE',  ( 1.000000000000000000, 0.000000000000000000, 0.000000000000000000 ) ) ;
#155 = CARTESIAN_POINT ( 'NONE',  ( 9.000000000000000000, 1.102182119232617714E-15, 807.0000000000000000 ) ) ;
#156 = APPROVAL_ROLE ( '' ) ;
#157 = PERSON_AND_ORGANIZATION ( #74, #79 ) ;
#158 =( LENGTH_UNIT ( ) NAMED_UNIT ( * ) SI_UNIT ( .MILLI., .METRE. ) );
#159 = PERSON_AND_ORGANIZATION ( #74, #79 ) ;
#160 = VERTEX_POINT ( 'NONE', #55 ) ;
#161 = APPLICATION_PROTOCOL_DEFINITION ( 'international standard', 'config_control_design', 1994, #272 ) ;
#162 = AXIS2_PLACEMENT_3D ( 'NONE', #29, #120, #291 ) ;
#163 = EDGE_LOOP ( 'NONE', ( #69, #245, #213, #24 ) ) ;
#164 = ORIENTED_EDGE ( 'NONE', *, *, #302, .T. ) ;
#165 = ADVANCED_FACE ( 'NONE', ( #303 ), #276, .T. ) ;
#166 = DIRECTION ( 'NONE',  ( 0.000000000000000000, 0.000000000000000000, 1.000000000000000000 ) ) ;
#167 = SECURITY_CLASSIFICATION ( '', '', #93 ) ;
#168 = LINE ( 'NONE', #170, #199 ) ;
#169 = AXIS2_PLACEMENT_3D ( 'NONE', #301, #151, #33 ) ;
#170 = CARTESIAN_POINT ( 'NONE',  ( 12.00000000000000178, 1.469576158976824144E-15, 7.000000000000000000 ) ) ;
#171 = DIRECTION ( 'NONE',  ( -0.000000000000000000, -0.000000000000000000, -1.000000000000000000 ) ) ;
#172 = FACE_OUTER_BOUND ( 'NONE', #147, .T. ) ;
#173 = CC_DESIGN_SECURITY_CLASSIFICATION ( #167, ( #295 ) ) ;
#174 = CLOSED_SHELL ( 'NONE', ( #257, #244, #165, #251, #209, #89, #134, #236, #239 ) ) ;
#175 = DIRECTION ( 'NONE',  ( 0.000000000000000000, 0.000000000000000000, 1.000000000000000000 ) ) ;
#176 = CARTESIAN_POINT ( 'NONE',  ( -9.000000000000000000, 0.000000000000000000, 7.199999999999984190 ) ) ;
#177 = APPROVAL ( #60, 'NEURÈENÝ' ) ;
#178 = DIRECTION ( 'NONE',  ( 0.000000000000000000, 0.000000000000000000, 1.000000000000000000 ) ) ;
#179 = AXIS2_PLACEMENT_3D ( 'NONE', #202, #37, #129 ) ;
#180 = PLANE ( 'NONE',  #210 ) ;
#181 = EDGE_CURVE ( 'NONE', #121, #160, #63, .T. ) ;
#182 =( NAMED_UNIT ( * ) PLANE_ANGLE_UNIT ( ) SI_UNIT ( $, .RADIAN. ) );
#183 = PERSON_AND_ORGANIZATION_ROLE ( 'design_supplier' ) ;
#184 = AXIS2_PLACEMENT_3D ( 'NONE', #254, #77, #198 ) ;
#185 = PERSON_AND_ORGANIZATION ( #74, #79 ) ;
#186 = APPROVAL_ROLE ( '' ) ;
#187 = CC_DESIGN_PERSON_AND_ORGANIZATION_ASSIGNMENT ( #135, #136, ( #78 ) ) ;
#188 = ORIENTED_EDGE ( 'NONE', *, *, #36, .F. ) ;
#189 = AXIS2_PLACEMENT_3D ( 'NONE', #70, #48, #9 ) ;
#190 = DIRECTION ( 'NONE',  ( 0.000000000000000000, -1.000000000000000000, 0.000000000000000000 ) ) ;
#191 = CIRCLE ( 'NONE', #44, 9.199999999999999289 ) ;
#192 = FACE_OUTER_BOUND ( 'NONE', #163, .T. ) ;
#193 = CARTESIAN_POINT ( 'NONE',  ( -9.000000000000000000, 0.000000000000000000, 807.0000000000000000 ) ) ;
#194 = DIRECTION ( 'NONE',  ( -0.000000000000000000, -0.000000000000000000, -1.000000000000000000 ) ) ;
#195 = AXIS2_PLACEMENT_3D ( 'NONE', #253, #57, #250 ) ;
#196 = CARTESIAN_POINT ( 'NONE',  ( 0.000000000000000000, 0.000000000000000000, 7.000000000000000000 ) ) ;
#197 = CARTESIAN_POINT ( 'NONE',  ( 0.000000000000000000, 0.000000000000000000, 807.0000000000000000 ) ) ;
#198 = DIRECTION ( 'NONE',  ( 1.000000000000000000, 0.000000000000000000, 0.000000000000000000 ) ) ;
#199 = VECTOR ( 'NONE', #126, 1000.000000000000000 ) ;
#200 = EDGE_CURVE ( 'NONE', #260, #7, #105, .T. ) ;
#201 = FACE_OUTER_BOUND ( 'NONE', #238, .T. ) ;
#202 = CARTESIAN_POINT ( 'NONE',  ( 0.000000000000000000, 0.000000000000000000, 807.0000000000000000 ) ) ;
#203 = DIRECTION ( 'NONE',  ( 1.000000000000000000, 0.000000000000000000, 0.000000000000000000 ) ) ;
#204 = AXIS2_PLACEMENT_3D ( 'NONE', #141, #166, #50 ) ;
#205 = DATE_AND_TIME ( #114, #22 ) ;
#206 = APPROVAL_ROLE ( '' ) ;
#207 = ORIENTED_EDGE ( 'NONE', *, *, #100, .F. ) ;
#208 = EDGE_CURVE ( 'NONE', #67, #76, #297, .T. ) ;
#209 = ADVANCED_FACE ( 'NONE', ( #106, #172 ), #180, .T. ) ;
#210 = AXIS2_PLACEMENT_3D ( 'NONE', #225, #175, #227 ) ;
#211 = CALENDAR_DATE ( 2022, 7, 7 ) ;
#212 = CC_DESIGN_PERSON_AND_ORGANIZATION_ASSIGNMENT ( #159, #183, ( #295 ) ) ;
#213 = ORIENTED_EDGE ( 'NONE', *, *, #49, .T. ) ;
#214 = PERSON_AND_ORGANIZATION_ROLE ( 'design_owner' ) ;
#215 = ORIENTED_EDGE ( 'NONE', *, *, #247, .T. ) ;
#216 = ORIENTED_EDGE ( 'NONE', *, *, #125, .F. ) ;
#217 = EDGE_LOOP ( 'NONE', ( #164, #25 ) ) ;
#218 = FACE_OUTER_BOUND ( 'NONE', #46, .T. ) ;
#219 = EDGE_LOOP ( 'NONE', ( #287, #262 ) ) ;
#220 = AXIS2_PLACEMENT_3D ( 'NONE', #264, #190, #268 ) ;
#221 = DIRECTION ( 'NONE',  ( 1.000000000000000000, 0.000000000000000000, -0.000000000000000000 ) ) ;
#222 = CARTESIAN_POINT ( 'NONE',  ( 0.000000000000000000, 0.000000000000000000, 7.000000000000000000 ) ) ;
#223 = DIRECTION ( 'NONE',  ( -0.000000000000000000, -0.000000000000000000, -1.000000000000000000 ) ) ;
#224 = TOROIDAL_SURFACE ( 'NONE', #3, 9.199999999999999289, 0.2000000000000000111 ) ;
#225 = CARTESIAN_POINT ( 'NONE',  ( 0.000000000000000000, 0.000000000000000000, 7.000000000000000000 ) ) ;
#226 = CARTESIAN_POINT ( 'NONE',  ( 0.000000000000000000, 0.000000000000000000, 7.199999999999984190 ) ) ;
#227 = DIRECTION ( 'NONE',  ( 1.000000000000000000, 0.000000000000000000, -0.000000000000000000 ) ) ;
#228 = ADVANCED_BREP_SHAPE_REPRESENTATION ( '2962', ( #231, #84 ), #2 ) ;
#229 = AXIS2_PLACEMENT_3D ( 'NONE', #85, #83, #273 ) ;
#230 = COORDINATED_UNIVERSAL_TIME_OFFSET ( 1, 0, .AHEAD. ) ;
#231 = MANIFOLD_SOLID_BREP ( 'Zaoblit1', #174 ) ;
#232 = APPROVAL_DATE_TIME ( #110, #177 ) ;
#233 = PRODUCT_DEFINITION_SHAPE ( 'NONE', 'NONE',  #78 ) ;
#234 = EDGE_CURVE ( 'NONE', #160, #121, #115, .T. ) ;
#235 = CARTESIAN_POINT ( 'NONE',  ( 0.000000000000000000, 0.000000000000000000, 0.000000000000000000 ) ) ;
#236 = ADVANCED_FACE ( 'NONE', ( #248 ), #32, .T. ) ;
#237 = TOROIDAL_SURFACE ( 'NONE', #252, 9.199999999999999289, 0.2000000000000000111 ) ;
#238 = EDGE_LOOP ( 'NONE', ( #216, #73, #43, #207 ) ) ;
#239 = ADVANCED_FACE ( 'NONE', ( #127 ), #224, .F. ) ;
#240 = CYLINDRICAL_SURFACE ( 'NONE', #189, 9.000000000000000000 ) ;
#241 = CC_DESIGN_PERSON_AND_ORGANIZATION_ASSIGNMENT ( #157, #214, ( #117 ) ) ;
#242 = AXIS2_PLACEMENT_3D ( 'NONE', #274, #178, #300 ) ;
#243 = ORIENTED_EDGE ( 'NONE', *, *, #234, .T. ) ;
#244 = ADVANCED_FACE ( 'NONE', ( #249 ), #280, .T. ) ;
#245 = ORIENTED_EDGE ( 'NONE', *, *, #302, .F. ) ;
#246 = CARTESIAN_POINT ( 'NONE',  ( -12.00000000000000178, 0.000000000000000000, 0.000000000000000000 ) ) ;
#247 = EDGE_CURVE ( 'NONE', #118, #144, #23, .T. ) ;
#248 = FACE_OUTER_BOUND ( 'NONE', #217, .T. ) ;
#249 = FACE_OUTER_BOUND ( 'NONE', #21, .T. ) ;
#250 = DIRECTION ( 'NONE',  ( -1.000000000000000000, 0.000000000000000000, 0.000000000000000000 ) ) ;
#251 = ADVANCED_FACE ( 'NONE', ( #275 ), #14, .T. ) ;
#252 = AXIS2_PLACEMENT_3D ( 'NONE', #59, #130, #34 ) ;
#253 = CARTESIAN_POINT ( 'NONE',  ( 0.000000000000000000, 0.000000000000000000, 7.000000000000000000 ) ) ;
#254 = CARTESIAN_POINT ( 'NONE',  ( 0.000000000000000000, 0.000000000000000000, 807.0000000000000000 ) ) ;
#255 = ORIENTED_EDGE ( 'NONE', *, *, #49, .F. ) ;
#256 = CC_DESIGN_APPROVAL ( #269, ( #167 ) ) ;
#257 = ADVANCED_FACE ( 'NONE', ( #201 ), #237, .F. ) ;
#258 = PERSON_AND_ORGANIZATION_ROLE ( 'classification_officer' ) ;
#259 = COORDINATED_UNIVERSAL_TIME_OFFSET ( 1, 0, .AHEAD. ) ;
#260 = VERTEX_POINT ( 'NONE', #155 ) ;
#261 = MECHANICAL_CONTEXT ( 'NONE', #272, 'mechanical' ) ;
#262 = ORIENTED_EDGE ( 'NONE', *, *, #208, .T. ) ;
#263 = SHAPE_DEFINITION_REPRESENTATION ( #233, #228 ) ;
#264 = CARTESIAN_POINT ( 'NONE',  ( 9.199999999999999289, 0.000000000000000000, 7.199999999999984190 ) ) ;
#265 = EDGE_CURVE ( 'NONE', #144, #67, #153, .T. ) ;
#266 = LINE ( 'NONE', #193, #292 ) ;
#267 = CIRCLE ( 'NONE', #278, 12.00000000000000178 ) ;
#268 = DIRECTION ( 'NONE',  ( 0.000000000000000000, 0.000000000000000000, -1.000000000000000000 ) ) ;
#269 = APPROVAL ( #64, 'NEURÈENÝ' ) ;
#270 = DIRECTION ( 'NONE',  ( 0.000000000000000000, 0.000000000000000000, 1.000000000000000000 ) ) ;
#271 = ORIENTED_EDGE ( 'NONE', *, *, #111, .T. ) ;
#272 = APPLICATION_CONTEXT ( 'configuration controlled 3d designs of mechanical parts and assemblies' ) ;
#273 = DIRECTION ( 'NONE',  ( -1.000000000000000000, 0.000000000000000000, 0.000000000000000000 ) ) ;
#274 = CARTESIAN_POINT ( 'NONE',  ( 0.000000000000000000, 0.000000000000000000, 7.000000000000000000 ) ) ;
#275 = FACE_OUTER_BOUND ( 'NONE', #39, .T. ) ;
#276 = CYLINDRICAL_SURFACE ( 'NONE', #229, 12.00000000000000178 ) ;
#277 = EDGE_CURVE ( 'NONE', #281, #65, #267, .T. ) ;
#278 = AXIS2_PLACEMENT_3D ( 'NONE', #108, #304, #203 ) ;
#279 = PRODUCT_RELATED_PRODUCT_CATEGORY ( 'detail', '', ( #117 ) ) ;
#280 = CYLINDRICAL_SURFACE ( 'NONE', #169, 9.000000000000000000 ) ;
#281 = VERTEX_POINT ( 'NONE', #38 ) ;
#282 = PERSON_AND_ORGANIZATION ( #74, #79 ) ;
#283 = ORIENTED_EDGE ( 'NONE', *, *, #100, .T. ) ;
#284 = LOCAL_TIME ( 11, 35, 19.00000000000000000, #259 ) ;
#285 = CALENDAR_DATE ( 2022, 7, 7 ) ;
#286 =( NAMED_UNIT ( * ) SI_UNIT ( $, .STERADIAN. ) SOLID_ANGLE_UNIT ( ) );
#287 = ORIENTED_EDGE ( 'NONE', *, *, #18, .T. ) ;
#288 = CC_DESIGN_APPROVAL ( #177, ( #295 ) ) ;
#289 = VECTOR ( 'NONE', #107, 1000.000000000000000 ) ;
#290 = DESIGN_CONTEXT ( 'detailed design', #95, 'design' ) ;
#291 = DIRECTION ( 'NONE',  ( 1.000000000000000000, 0.000000000000000000, 0.000000000000000000 ) ) ;
#292 = VECTOR ( 'NONE', #194, 1000.000000000000000 ) ;
#293 = ORIENTED_EDGE ( 'NONE', *, *, #277, .T. ) ;
#294 = CARTESIAN_POINT ( 'NONE',  ( 9.000000000000000000, 1.102182119232617714E-15, 7.199999999999984190 ) ) ;
#295 = PRODUCT_DEFINITION_FORMATION_WITH_SPECIFIED_SOURCE ( 'LIBOVOLNÝ', '', #117, .NOT_KNOWN. ) ;
#296 = APPROVAL_DATE_TIME ( #52, #269 ) ;
#297 = CIRCLE ( 'NONE', #10, 9.199999999999999289 ) ;
#298 = ORIENTED_EDGE ( 'NONE', *, *, #234, .F. ) ;
#299 = LINE ( 'NONE', #51, #81 ) ;
#300 = DIRECTION ( 'NONE',  ( 1.000000000000000000, 0.000000000000000000, 0.000000000000000000 ) ) ;
#301 = CARTESIAN_POINT ( 'NONE',  ( 0.000000000000000000, 0.000000000000000000, 807.0000000000000000 ) ) ;
#302 = EDGE_CURVE ( 'NONE', #7, #260, #139, .T. ) ;
#303 = FACE_OUTER_BOUND ( 'NONE', #26, .T. ) ;
#304 = DIRECTION ( 'NONE',  ( 0.000000000000000000, 0.000000000000000000, 1.000000000000000000 ) ) ;
#305 = CIRCLE ( 'NONE', #162, 12.00000000000000178 ) ;
#306 = DATE_TIME_ROLE ( 'creation_date' ) ;
#307 = ORIENTED_EDGE ( 'NONE', *, *, #181, .F. ) ;
ENDSEC;
END-ISO-10303-21;
