ISO-10303-21;
HEADER;
FILE_DESCRIPTION (( 'STEP AP203' ),
    '1' );
FILE_NAME ('325a.STEP',
    '2022-07-07T10:23:42',
    ( '' ),
    ( '' ),
    'SwSTEP 2.0',
    'SolidWorks 2019',
    '' );
FILE_SCHEMA (( 'CONFIG_CONTROL_DESIGN' ));
ENDSEC;

DATA;
#1 = ORIENTED_EDGE ( 'NONE', *, *, #76, .F. ) ;
#2 = ORIENTED_EDGE ( 'NONE', *, *, #260, .F. ) ;
#3 = VECTOR ( 'NONE', #22, 1000.000000000000000 ) ;
#4 = FACE_OUTER_BOUND ( 'NONE', #24, .T. ) ;
#5 = CIRCLE ( 'NONE', #125, 4.000000000000000000 ) ;
#6 = CARTESIAN_POINT ( 'NONE',  ( 0.000000000000000000, 0.000000000000000000, 3.000000000000000000 ) ) ;
#7 = DIRECTION ( 'NONE',  ( 1.000000000000000000, 0.000000000000000000, 0.000000000000000000 ) ) ;
#8 = DIRECTION ( 'NONE',  ( -0.000000000000000000, -0.000000000000000000, -1.000000000000000000 ) ) ;
#9 = CIRCLE ( 'NONE', #29, 2.300000000000000266 ) ;
#10 = PERSON_AND_ORGANIZATION_ROLE ( 'design_supplier' ) ;
#11 = EDGE_CURVE ( 'NONE', #140, #41, #195, .T. ) ;
#12 = DIRECTION ( 'NONE',  ( 1.000000000000000000, 0.000000000000000000, 0.000000000000000000 ) ) ;
#13 = DIRECTION ( 'NONE',  ( 1.000000000000000000, 0.000000000000000000, 0.000000000000000000 ) ) ;
#14 = CARTESIAN_POINT ( 'NONE',  ( 4.000000000000000000, 4.898587196589412829E-16, 0.000000000000000000 ) ) ;
#15 = APPROVAL_STATUS ( 'not_yet_approved' ) ;
#16 =( LENGTH_UNIT ( ) NAMED_UNIT ( * ) SI_UNIT ( .MILLI., .METRE. ) );
#17 = AXIS2_PLACEMENT_3D ( 'NONE', #98, #266, #52 ) ;
#18 = ORIENTED_EDGE ( 'NONE', *, *, #111, .T. ) ;
#19 = AXIS2_PLACEMENT_3D ( 'NONE', #276, #270, #96 ) ;
#20 = ORIENTED_EDGE ( 'NONE', *, *, #97, .F. ) ;
#21 = CARTESIAN_POINT ( 'NONE',  ( -4.000000000000000000, 0.000000000000000000, 3.000000000000000000 ) ) ;
#22 = DIRECTION ( 'NONE',  ( -0.000000000000000000, -0.000000000000000000, -1.000000000000000000 ) ) ;
#23 = CARTESIAN_POINT ( 'NONE',  ( 0.000000000000000000, 0.000000000000000000, 3.000000000000000000 ) ) ;
#24 = EDGE_LOOP ( 'NONE', ( #279, #44, #92, #73 ) ) ;
#25 = CARTESIAN_POINT ( 'NONE',  ( 2.100000000000000089, 2.571758278209441957E-16, 403.0000000000000000 ) ) ;
#26 = CIRCLE ( 'NONE', #174, 2.300000000000000266 ) ;
#27 = ADVANCED_FACE ( 'NONE', ( #93 ), #112, .F. ) ;
#28 = CARTESIAN_POINT ( 'NONE',  ( 0.000000000000000000, 0.000000000000000000, 3.000000000000000000 ) ) ;
#29 = AXIS2_PLACEMENT_3D ( 'NONE', #28, #56, #218 ) ;
#30 = PLANE ( 'NONE',  #166 ) ;
#31 = CALENDAR_DATE ( 2022, 7, 7 ) ;
#32 = CYLINDRICAL_SURFACE ( 'NONE', #282, 4.000000000000000000 ) ;
#33 = MANIFOLD_SOLID_BREP ( 'Zaoblit1', #232 ) ;
#34 = PERSON_AND_ORGANIZATION_ROLE ( 'creator' ) ;
#35 = DIRECTION ( 'NONE',  ( -1.000000000000000000, 0.000000000000000000, 0.000000000000000000 ) ) ;
#36 = MECHANICAL_CONTEXT ( 'NONE', #45, 'mechanical' ) ;
#37 = PLANE ( 'NONE',  #84 ) ;
#38 = PERSON_AND_ORGANIZATION_ROLE ( 'design_owner' ) ;
#39 = DATE_TIME_ROLE ( 'classification_date' ) ;
#40 = EDGE_CURVE ( 'NONE', #67, #253, #90, .T. ) ;
#41 = VERTEX_POINT ( 'NONE', #168 ) ;
#42 = EDGE_LOOP ( 'NONE', ( #164, #259, #72, #124 ) ) ;
#43 = AXIS2_PLACEMENT_3D ( 'NONE', #153, #133, #105 ) ;
#44 = ORIENTED_EDGE ( 'NONE', *, *, #47, .T. ) ;
#45 = APPLICATION_CONTEXT ( 'configuration controlled 3d designs of mechanical parts and assemblies' ) ;
#46 = CARTESIAN_POINT ( 'NONE',  ( 0.000000000000000000, 0.000000000000000000, 0.000000000000000000 ) ) ;
#47 = EDGE_CURVE ( 'NONE', #140, #229, #118, .T. ) ;
#48 = PLANE ( 'NONE',  #241 ) ;
#49 = CC_DESIGN_DATE_AND_TIME_ASSIGNMENT ( #295, #39, ( #306 ) ) ;
#50 = CARTESIAN_POINT ( 'NONE',  ( 0.000000000000000000, 0.000000000000000000, 403.0000000000000000 ) ) ;
#51 = ORIENTED_EDGE ( 'NONE', *, *, #126, .F. ) ;
#52 = DIRECTION ( 'NONE',  ( -1.000000000000000000, 1.224646799147353207E-16, 0.000000000000000000 ) ) ;
#53 = AXIS2_PLACEMENT_3D ( 'NONE', #223, #158, #13 ) ;
#54 = DIRECTION ( 'NONE',  ( 0.000000000000000000, 0.000000000000000000, 1.000000000000000000 ) ) ;
#55 = APPROVAL_ROLE ( '' ) ;
#56 = DIRECTION ( 'NONE',  ( -0.000000000000000000, -0.000000000000000000, -1.000000000000000000 ) ) ;
#57 = APPROVAL_DATE_TIME ( #61, #62 ) ;
#58 = CARTESIAN_POINT ( 'NONE',  ( 2.300000000000000266, 0.000000000000000000, 2.999999999999990674 ) ) ;
#59 = CC_DESIGN_PERSON_AND_ORGANIZATION_ASSIGNMENT ( #206, #10, ( #300 ) ) ;
#60 = FACE_OUTER_BOUND ( 'NONE', #304, .T. ) ;
#61 = DATE_AND_TIME ( #271, #275 ) ;
#62 = APPROVAL ( #181, 'NEURÈENÝ' ) ;
#63 = AXIS2_PLACEMENT_3D ( 'NONE', #157, #74, #7 ) ;
#64 = VERTEX_POINT ( 'NONE', #212 ) ;
#65 = ADVANCED_FACE ( 'NONE', ( #4 ), #121, .T. ) ;
#66 = CIRCLE ( 'NONE', #252, 4.000000000000000000 ) ;
#67 = VERTEX_POINT ( 'NONE', #21 ) ;
#68 = LOCAL_TIME ( 12, 23, 42.00000000000000000, #188 ) ;
#69 = DIRECTION ( 'NONE',  ( 0.000000000000000000, 0.000000000000000000, 1.000000000000000000 ) ) ;
#70 = ORIENTED_EDGE ( 'NONE', *, *, #230, .T. ) ;
#71 = DIRECTION ( 'NONE',  ( 0.000000000000000000, -1.000000000000000000, 0.000000000000000000 ) ) ;
#72 = ORIENTED_EDGE ( 'NONE', *, *, #108, .T. ) ;
#73 = ORIENTED_EDGE ( 'NONE', *, *, #280, .F. ) ;
#74 = DIRECTION ( 'NONE',  ( 0.000000000000000000, 0.000000000000000000, 1.000000000000000000 ) ) ;
#75 = APPLICATION_CONTEXT ( 'configuration controlled 3d designs of mechanical parts and assemblies' ) ;
#76 = EDGE_CURVE ( 'NONE', #171, #229, #183, .T. ) ;
#77 = DIRECTION ( 'NONE',  ( 0.000000000000000000, 0.000000000000000000, 1.000000000000000000 ) ) ;
#78 = APPROVAL_PERSON_ORGANIZATION ( #79, #62, #299 ) ;
#79 = PERSON_AND_ORGANIZATION ( #198, #189 ) ;
#80 = DIRECTION ( 'NONE',  ( -0.000000000000000000, -0.000000000000000000, -1.000000000000000000 ) ) ;
#81 = CC_DESIGN_PERSON_AND_ORGANIZATION_ASSIGNMENT ( #155, #34, ( #300 ) ) ;
#82 = AXIS2_PLACEMENT_3D ( 'NONE', #117, #283, #258 ) ;
#83 = CARTESIAN_POINT ( 'NONE',  ( 0.000000000000000000, 0.000000000000000000, 403.0000000000000000 ) ) ;
#84 = AXIS2_PLACEMENT_3D ( 'NONE', #132, #77, #298 ) ;
#85 = PERSON_AND_ORGANIZATION ( #198, #189 ) ;
#86 = ORIENTED_EDGE ( 'NONE', *, *, #103, .F. ) ;
#87 = ORIENTED_EDGE ( 'NONE', *, *, #11, .T. ) ;
#88 = APPROVAL_PERSON_ORGANIZATION ( #99, #139, #293 ) ;
#89 = ORIENTED_EDGE ( 'NONE', *, *, #76, .T. ) ;
#90 = LINE ( 'NONE', #288, #3 ) ;
#91 = DIRECTION ( 'NONE',  ( -0.000000000000000000, -0.000000000000000000, -1.000000000000000000 ) ) ;
#92 = ORIENTED_EDGE ( 'NONE', *, *, #260, .T. ) ;
#93 = FACE_OUTER_BOUND ( 'NONE', #194, .T. ) ;
#94 = CC_DESIGN_APPROVAL ( #238, ( #172 ) ) ;
#95 = DIRECTION ( 'NONE',  ( 1.000000000000000000, 0.000000000000000000, 0.000000000000000000 ) ) ;
#96 = DIRECTION ( 'NONE',  ( 1.000000000000000000, 0.000000000000000000, 0.000000000000000000 ) ) ;
#97 = EDGE_CURVE ( 'NONE', #64, #255, #286, .T. ) ;
#98 = CARTESIAN_POINT ( 'NONE',  ( -2.300000000000000266, 2.816687638038912549E-16, 3.199999999999980638 ) ) ;
#99 = PERSON_AND_ORGANIZATION ( #198, #189 ) ;
#100 = DIRECTION ( 'NONE',  ( 0.000000000000000000, 0.000000000000000000, 1.000000000000000000 ) ) ;
#101 = PERSON_AND_ORGANIZATION_ROLE ( 'classification_officer' ) ;
#102 = FACE_OUTER_BOUND ( 'NONE', #42, .T. ) ;
#103 = EDGE_CURVE ( 'NONE', #215, #239, #26, .T. ) ;
#104 = DATE_AND_TIME ( #187, #228 ) ;
#105 = DIRECTION ( 'NONE',  ( 1.000000000000000000, 0.000000000000000000, 0.000000000000000000 ) ) ;
#106 = CALENDAR_DATE ( 2022, 7, 7 ) ;
#107 = CIRCLE ( 'NONE', #43, 4.000000000000000000 ) ;
#108 = EDGE_CURVE ( 'NONE', #255, #253, #66, .T. ) ;
#109 = TOROIDAL_SURFACE ( 'NONE', #63, 2.300000000000000266, 0.2000000000000000111 ) ;
#110 = DATE_AND_TIME ( #31, #156 ) ;
#111 = EDGE_CURVE ( 'NONE', #229, #215, #134, .T. ) ;
#112 = TOROIDAL_SURFACE ( 'NONE', #272, 2.300000000000000266, 0.2000000000000000111 ) ;
#113 = CIRCLE ( 'NONE', #17, 0.2000000000000000944 ) ;
#114 = CC_DESIGN_PERSON_AND_ORGANIZATION_ASSIGNMENT ( #85, #38, ( #146 ) ) ;
#115 = ORIENTED_EDGE ( 'NONE', *, *, #47, .F. ) ;
#116 = PRODUCT_DEFINITION_SHAPE ( 'NONE', 'NONE',  #172 ) ;
#117 = CARTESIAN_POINT ( 'NONE',  ( 0.000000000000000000, 0.000000000000000000, 3.199999999999980638 ) ) ;
#118 = LINE ( 'NONE', #25, #287 ) ;
#119 = CC_DESIGN_DATE_AND_TIME_ASSIGNMENT ( #110, #220, ( #172 ) ) ;
#120 = AXIS2_PLACEMENT_3D ( 'NONE', #292, #222, #12 ) ;
#121 = CYLINDRICAL_SURFACE ( 'NONE', #226, 2.100000000000000089 ) ;
#122 = ADVANCED_FACE ( 'NONE', ( #261 ), #48, .F. ) ;
#123 = ORIENTED_EDGE ( 'NONE', *, *, #285, .T. ) ;
#124 = ORIENTED_EDGE ( 'NONE', *, *, #40, .F. ) ;
#125 = AXIS2_PLACEMENT_3D ( 'NONE', #200, #296, #224 ) ;
#126 = EDGE_CURVE ( 'NONE', #67, #64, #107, .T. ) ;
#127 = DIRECTION ( 'NONE',  ( -1.000000000000000000, 0.000000000000000000, 0.000000000000000000 ) ) ;
#128 = EDGE_CURVE ( 'NONE', #64, #67, #243, .T. ) ;
#129 = CYLINDRICAL_SURFACE ( 'NONE', #257, 2.100000000000000089 ) ;
#130 = PERSON_AND_ORGANIZATION_ROLE ( 'creator' ) ;
#131 = DIRECTION ( 'NONE',  ( -0.000000000000000000, -0.000000000000000000, -1.000000000000000000 ) ) ;
#132 = CARTESIAN_POINT ( 'NONE',  ( 0.000000000000000000, 0.000000000000000000, 3.000000000000000000 ) ) ;
#133 = DIRECTION ( 'NONE',  ( 0.000000000000000000, 0.000000000000000000, 1.000000000000000000 ) ) ;
#134 = CIRCLE ( 'NONE', #161, 0.2000000000000000944 ) ;
#135 = CALENDAR_DATE ( 2022, 7, 7 ) ;
#136 = ORIENTED_EDGE ( 'NONE', *, *, #108, .F. ) ;
#137 = AXIS2_PLACEMENT_3D ( 'NONE', #6, #80, #127 ) ;
#138 = ORIENTED_EDGE ( 'NONE', *, *, #285, .F. ) ;
#139 = APPROVAL ( #15, 'NEURÈENÝ' ) ;
#140 = VERTEX_POINT ( 'NONE', #291 ) ;
#141 = ADVANCED_FACE ( 'NONE', ( #199 ), #109, .F. ) ;
#142 = EDGE_LOOP ( 'NONE', ( #165, #2, #18, #138 ) ) ;
#143 = DIRECTION ( 'NONE',  ( 0.000000000000000000, 0.000000000000000000, 1.000000000000000000 ) ) ;
#144 = AXIS2_PLACEMENT_3D ( 'NONE', #268, #54, #151 ) ;
#145 = CARTESIAN_POINT ( 'NONE',  ( 0.000000000000000000, 0.000000000000000000, 0.000000000000000000 ) ) ;
#146 = PRODUCT ( '325a', '325a', '', ( #36 ) ) ;
#147 = ORIENTED_EDGE ( 'NONE', *, *, #40, .T. ) ;
#148 = DIRECTION ( 'NONE',  ( -1.000000000000000000, 0.000000000000000000, 0.000000000000000000 ) ) ;
#149 = CARTESIAN_POINT ( 'NONE',  ( -2.100000000000000089, 0.000000000000000000, 3.199999999999980638 ) ) ;
#150 = APPROVAL_STATUS ( 'not_yet_approved' ) ;
#151 = DIRECTION ( 'NONE',  ( 1.000000000000000000, 0.000000000000000000, 0.000000000000000000 ) ) ;
#152 = PERSON_AND_ORGANIZATION ( #198, #189 ) ;
#153 = CARTESIAN_POINT ( 'NONE',  ( 0.000000000000000000, 0.000000000000000000, 3.000000000000000000 ) ) ;
#154 = ADVANCED_FACE ( 'NONE', ( #175 ), #180, .T. ) ;
#155 = PERSON_AND_ORGANIZATION ( #198, #189 ) ;
#156 = LOCAL_TIME ( 12, 23, 42.00000000000000000, #225 ) ;
#157 = CARTESIAN_POINT ( 'NONE',  ( 0.000000000000000000, 0.000000000000000000, 3.199999999999980638 ) ) ;
#158 = DIRECTION ( 'NONE',  ( 0.000000000000000000, 0.000000000000000000, 1.000000000000000000 ) ) ;
#159 =( NAMED_UNIT ( * ) PLANE_ANGLE_UNIT ( ) SI_UNIT ( $, .RADIAN. ) );
#160 = SHAPE_DEFINITION_REPRESENTATION ( #116, #265 ) ;
#161 = AXIS2_PLACEMENT_3D ( 'NONE', #214, #71, #170 ) ;
#162 = CC_DESIGN_SECURITY_CLASSIFICATION ( #306, ( #300 ) ) ;
#163 = CC_DESIGN_PERSON_AND_ORGANIZATION_ASSIGNMENT ( #202, #101, ( #306 ) ) ;
#164 = ORIENTED_EDGE ( 'NONE', *, *, #128, .F. ) ;
#165 = ORIENTED_EDGE ( 'NONE', *, *, #167, .F. ) ;
#166 = AXIS2_PLACEMENT_3D ( 'NONE', #83, #100, #273 ) ;
#167 = EDGE_CURVE ( 'NONE', #171, #239, #113, .T. ) ;
#168 = CARTESIAN_POINT ( 'NONE',  ( -2.100000000000000089, 0.000000000000000000, 403.0000000000000000 ) ) ;
#169 = ORIENTED_EDGE ( 'NONE', *, *, #262, .F. ) ;
#170 = DIRECTION ( 'NONE',  ( 0.000000000000000000, 0.000000000000000000, -1.000000000000000000 ) ) ;
#171 = VERTEX_POINT ( 'NONE', #149 ) ;
#172 = PRODUCT_DEFINITION ( 'NEZNÁMÝ', '', #300, #176 ) ;
#173 = EDGE_LOOP ( 'NONE', ( #216, #123 ) ) ;
#174 = AXIS2_PLACEMENT_3D ( 'NONE', #23, #193, #284 ) ;
#175 = FACE_OUTER_BOUND ( 'NONE', #207, .T. ) ;
#176 = DESIGN_CONTEXT ( 'detailed design', #75, 'design' ) ;
#177 = ADVANCED_FACE ( 'NONE', ( #60 ), #129, .T. ) ;
#178 = CC_DESIGN_APPROVAL ( #62, ( #306 ) ) ;
#179 = CARTESIAN_POINT ( 'NONE',  ( -4.000000000000000000, 0.000000000000000000, 0.000000000000000000 ) ) ;
#180 = CYLINDRICAL_SURFACE ( 'NONE', #137, 4.000000000000000000 ) ;
#181 = APPROVAL_STATUS ( 'not_yet_approved' ) ;
#182 = FACE_BOUND ( 'NONE', #173, .T. ) ;
#183 = CIRCLE ( 'NONE', #82, 2.100000000000000089 ) ;
#184 = APPROVAL_DATE_TIME ( #104, #139 ) ;
#185 = CIRCLE ( 'NONE', #144, 2.100000000000000089 ) ;
#186 = DIRECTION ( 'NONE',  ( 0.000000000000000000, 0.000000000000000000, 1.000000000000000000 ) ) ;
#187 = CALENDAR_DATE ( 2022, 7, 7 ) ;
#188 = COORDINATED_UNIVERSAL_TIME_OFFSET ( 1, 0, .AHEAD. ) ;
#189 = ORGANIZATION ( 'NEURÈENÝ', 'NEURÈENÝ', '' ) ;
#190 = ORIENTED_EDGE ( 'NONE', *, *, #230, .F. ) ;
#191 = DIRECTION ( 'NONE',  ( 1.000000000000000000, 0.000000000000000000, 0.000000000000000000 ) ) ;
#192 =( GEOMETRIC_REPRESENTATION_CONTEXT ( 3 ) GLOBAL_UNCERTAINTY_ASSIGNED_CONTEXT ( ( #235 ) ) GLOBAL_UNIT_ASSIGNED_CONTEXT ( ( #16, #159, #245 ) ) REPRESENTATION_CONTEXT ( 'NONE', 'WORKASPACE' ) );
#193 = DIRECTION ( 'NONE',  ( -0.000000000000000000, -0.000000000000000000, -1.000000000000000000 ) ) ;
#194 = EDGE_LOOP ( 'NONE', ( #1, #209, #86, #303 ) ) ;
#195 = CIRCLE ( 'NONE', #248, 2.100000000000000089 ) ;
#196 = CC_DESIGN_PERSON_AND_ORGANIZATION_ASSIGNMENT ( #152, #130, ( #172 ) ) ;
#197 = EDGE_LOOP ( 'NONE', ( #301, #290 ) ) ;
#198 = PERSON ( 'NEURÈENÝ', 'NEURÈENÝ', 'NEURÈENÝ', ('NEURÈENÝ'), ('NEURÈENÝ'), ('NEURÈENÝ') ) ;
#199 = FACE_OUTER_BOUND ( 'NONE', #142, .T. ) ;
#200 = CARTESIAN_POINT ( 'NONE',  ( 0.000000000000000000, 0.000000000000000000, 0.000000000000000000 ) ) ;
#201 = CARTESIAN_POINT ( 'NONE',  ( 0.000000000000000000, 0.000000000000000000, 3.000000000000000000 ) ) ;
#202 = PERSON_AND_ORGANIZATION ( #198, #189 ) ;
#203 = LINE ( 'NONE', #204, #233 ) ;
#204 = CARTESIAN_POINT ( 'NONE',  ( -2.100000000000000089, 0.000000000000000000, 403.0000000000000000 ) ) ;
#205 = APPROVAL_DATE_TIME ( #247, #238 ) ;
#206 = PERSON_AND_ORGANIZATION ( #198, #189 ) ;
#207 = EDGE_LOOP ( 'NONE', ( #20, #51, #147, #70 ) ) ;
#208 = ADVANCED_FACE ( 'NONE', ( #244 ), #30, .T. ) ;
#209 = ORIENTED_EDGE ( 'NONE', *, *, #167, .T. ) ;
#210 = CARTESIAN_POINT ( 'NONE',  ( 0.000000000000000000, 0.000000000000000000, 3.199999999999980638 ) ) ;
#211 = ADVANCED_FACE ( 'NONE', ( #182, #242 ), #37, .T. ) ;
#212 = CARTESIAN_POINT ( 'NONE',  ( 4.000000000000000000, 4.898587196589412829E-16, 3.000000000000000000 ) ) ;
#213 = CIRCLE ( 'NONE', #120, 2.100000000000000089 ) ;
#214 = CARTESIAN_POINT ( 'NONE',  ( 2.300000000000000266, 0.000000000000000000, 3.199999999999980638 ) ) ;
#215 = VERTEX_POINT ( 'NONE', #58 ) ;
#216 = ORIENTED_EDGE ( 'NONE', *, *, #103, .T. ) ;
#217 = LOCAL_TIME ( 12, 23, 42.00000000000000000, #227 ) ;
#218 = DIRECTION ( 'NONE',  ( 1.000000000000000000, 0.000000000000000000, 0.000000000000000000 ) ) ;
#219 = CARTESIAN_POINT ( 'NONE',  ( 2.100000000000000089, 2.571758278209441957E-16, 3.199999999999980638 ) ) ;
#220 = DATE_TIME_ROLE ( 'creation_date' ) ;
#221 = DIRECTION ( 'NONE',  ( -1.000000000000000000, 0.000000000000000000, 0.000000000000000000 ) ) ;
#222 = DIRECTION ( 'NONE',  ( 0.000000000000000000, 0.000000000000000000, 1.000000000000000000 ) ) ;
#223 = CARTESIAN_POINT ( 'NONE',  ( 0.000000000000000000, 0.000000000000000000, 0.000000000000000000 ) ) ;
#224 = DIRECTION ( 'NONE',  ( 1.000000000000000000, 0.000000000000000000, 0.000000000000000000 ) ) ;
#225 = COORDINATED_UNIVERSAL_TIME_OFFSET ( 1, 0, .AHEAD. ) ;
#226 = AXIS2_PLACEMENT_3D ( 'NONE', #50, #264, #148 ) ;
#227 = COORDINATED_UNIVERSAL_TIME_OFFSET ( 1, 0, .AHEAD. ) ;
#228 = LOCAL_TIME ( 12, 23, 42.00000000000000000, #251 ) ;
#229 = VERTEX_POINT ( 'NONE', #219 ) ;
#230 = EDGE_CURVE ( 'NONE', #253, #255, #5, .T. ) ;
#231 = ORIENTED_EDGE ( 'NONE', *, *, #262, .T. ) ;
#232 = CLOSED_SHELL ( 'NONE', ( #27, #65, #274, #154, #211, #122, #177, #208, #141 ) ) ;
#233 = VECTOR ( 'NONE', #294, 1000.000000000000000 ) ;
#234 = PRODUCT_RELATED_PRODUCT_CATEGORY ( 'detail', '', ( #146 ) ) ;
#235 = UNCERTAINTY_MEASURE_WITH_UNIT (LENGTH_MEASURE( 1.000000000000000082E-05 ), #16, 'distance_accuracy_value', 'NONE');
#236 = DIRECTION ( 'NONE',  ( 0.000000000000000000, 0.000000000000000000, 1.000000000000000000 ) ) ;
#237 = DIRECTION ( 'NONE',  ( 1.000000000000000000, 0.000000000000000000, 0.000000000000000000 ) ) ;
#238 = APPROVAL ( #150, 'NEURÈENÝ' ) ;
#239 = VERTEX_POINT ( 'NONE', #246 ) ;
#240 = EDGE_LOOP ( 'NONE', ( #231, #87 ) ) ;
#241 = AXIS2_PLACEMENT_3D ( 'NONE', #145, #186, #249 ) ;
#242 = FACE_OUTER_BOUND ( 'NONE', #197, .T. ) ;
#243 = CIRCLE ( 'NONE', #19, 4.000000000000000000 ) ;
#244 = FACE_OUTER_BOUND ( 'NONE', #240, .T. ) ;
#245 =( NAMED_UNIT ( * ) SI_UNIT ( $, .STERADIAN. ) SOLID_ANGLE_UNIT ( ) );
#246 = CARTESIAN_POINT ( 'NONE',  ( -2.300000000000000266, 2.816687638038912549E-16, 2.999999999999990674 ) ) ;
#247 = DATE_AND_TIME ( #135, #68 ) ;
#248 = AXIS2_PLACEMENT_3D ( 'NONE', #263, #69, #191 ) ;
#249 = DIRECTION ( 'NONE',  ( 1.000000000000000000, 0.000000000000000000, -0.000000000000000000 ) ) ;
#250 = CARTESIAN_POINT ( 'NONE',  ( 0.000000000000000000, 0.000000000000000000, 403.0000000000000000 ) ) ;
#251 = COORDINATED_UNIVERSAL_TIME_OFFSET ( 1, 0, .AHEAD. ) ;
#252 = AXIS2_PLACEMENT_3D ( 'NONE', #46, #143, #237 ) ;
#253 = VERTEX_POINT ( 'NONE', #179 ) ;
#254 = EDGE_LOOP ( 'NONE', ( #190, #136 ) ) ;
#255 = VERTEX_POINT ( 'NONE', #14 ) ;
#256 = VECTOR ( 'NONE', #91, 1000.000000000000000 ) ;
#257 = AXIS2_PLACEMENT_3D ( 'NONE', #250, #8, #35 ) ;
#258 = DIRECTION ( 'NONE',  ( 1.000000000000000000, 0.000000000000000000, 0.000000000000000000 ) ) ;
#259 = ORIENTED_EDGE ( 'NONE', *, *, #97, .T. ) ;
#260 = EDGE_CURVE ( 'NONE', #229, #171, #213, .T. ) ;
#261 = FACE_OUTER_BOUND ( 'NONE', #254, .T. ) ;
#262 = EDGE_CURVE ( 'NONE', #41, #140, #185, .T. ) ;
#263 = CARTESIAN_POINT ( 'NONE',  ( 0.000000000000000000, 0.000000000000000000, 403.0000000000000000 ) ) ;
#264 = DIRECTION ( 'NONE',  ( -0.000000000000000000, -0.000000000000000000, -1.000000000000000000 ) ) ;
#265 = ADVANCED_BREP_SHAPE_REPRESENTATION ( '325a', ( #33, #53 ), #192 ) ;
#266 = DIRECTION ( 'NONE',  ( 1.224646799147353207E-16, 1.000000000000000000, -0.000000000000000000 ) ) ;
#267 = CC_DESIGN_APPROVAL ( #139, ( #300 ) ) ;
#268 = CARTESIAN_POINT ( 'NONE',  ( 0.000000000000000000, 0.000000000000000000, 403.0000000000000000 ) ) ;
#269 = PERSON_AND_ORGANIZATION ( #198, #189 ) ;
#270 = DIRECTION ( 'NONE',  ( 0.000000000000000000, 0.000000000000000000, 1.000000000000000000 ) ) ;
#271 = CALENDAR_DATE ( 2022, 7, 7 ) ;
#272 = AXIS2_PLACEMENT_3D ( 'NONE', #210, #236, #95 ) ;
#273 = DIRECTION ( 'NONE',  ( 1.000000000000000000, 0.000000000000000000, -0.000000000000000000 ) ) ;
#274 = ADVANCED_FACE ( 'NONE', ( #102 ), #32, .T. ) ;
#275 = LOCAL_TIME ( 12, 23, 42.00000000000000000, #277 ) ;
#276 = CARTESIAN_POINT ( 'NONE',  ( 0.000000000000000000, 0.000000000000000000, 3.000000000000000000 ) ) ;
#277 = COORDINATED_UNIVERSAL_TIME_OFFSET ( 1, 0, .AHEAD. ) ;
#278 = APPLICATION_PROTOCOL_DEFINITION ( 'international standard', 'config_control_design', 1994, #75 ) ;
#279 = ORIENTED_EDGE ( 'NONE', *, *, #11, .F. ) ;
#280 = EDGE_CURVE ( 'NONE', #41, #171, #203, .T. ) ;
#281 = ORIENTED_EDGE ( 'NONE', *, *, #280, .T. ) ;
#282 = AXIS2_PLACEMENT_3D ( 'NONE', #201, #131, #221 ) ;
#283 = DIRECTION ( 'NONE',  ( 0.000000000000000000, 0.000000000000000000, 1.000000000000000000 ) ) ;
#284 = DIRECTION ( 'NONE',  ( 1.000000000000000000, 0.000000000000000000, 0.000000000000000000 ) ) ;
#285 = EDGE_CURVE ( 'NONE', #239, #215, #9, .T. ) ;
#286 = LINE ( 'NONE', #307, #256 ) ;
#287 = VECTOR ( 'NONE', #305, 1000.000000000000000 ) ;
#288 = CARTESIAN_POINT ( 'NONE',  ( -4.000000000000000000, 0.000000000000000000, 3.000000000000000000 ) ) ;
#289 = APPROVAL_PERSON_ORGANIZATION ( #269, #238, #55 ) ;
#290 = ORIENTED_EDGE ( 'NONE', *, *, #128, .T. ) ;
#291 = CARTESIAN_POINT ( 'NONE',  ( 2.100000000000000089, 2.571758278209441957E-16, 403.0000000000000000 ) ) ;
#292 = CARTESIAN_POINT ( 'NONE',  ( 0.000000000000000000, 0.000000000000000000, 3.199999999999980638 ) ) ;
#293 = APPROVAL_ROLE ( '' ) ;
#294 = DIRECTION ( 'NONE',  ( -0.000000000000000000, -0.000000000000000000, -1.000000000000000000 ) ) ;
#295 = DATE_AND_TIME ( #106, #217 ) ;
#296 = DIRECTION ( 'NONE',  ( 0.000000000000000000, 0.000000000000000000, 1.000000000000000000 ) ) ;
#297 = APPLICATION_PROTOCOL_DEFINITION ( 'international standard', 'config_control_design', 1994, #45 ) ;
#298 = DIRECTION ( 'NONE',  ( 1.000000000000000000, 0.000000000000000000, -0.000000000000000000 ) ) ;
#299 = APPROVAL_ROLE ( '' ) ;
#300 = PRODUCT_DEFINITION_FORMATION_WITH_SPECIFIED_SOURCE ( 'LIBOVOLNÝ', '', #146, .NOT_KNOWN. ) ;
#301 = ORIENTED_EDGE ( 'NONE', *, *, #126, .T. ) ;
#302 = SECURITY_CLASSIFICATION_LEVEL ( 'unclassified' ) ;
#303 = ORIENTED_EDGE ( 'NONE', *, *, #111, .F. ) ;
#304 = EDGE_LOOP ( 'NONE', ( #115, #169, #281, #89 ) ) ;
#305 = DIRECTION ( 'NONE',  ( -0.000000000000000000, -0.000000000000000000, -1.000000000000000000 ) ) ;
#306 = SECURITY_CLASSIFICATION ( '', '', #302 ) ;
#307 = CARTESIAN_POINT ( 'NONE',  ( 4.000000000000000000, 4.898587196589412829E-16, 3.000000000000000000 ) ) ;
ENDSEC;
END-ISO-10303-21;
