ISO-10303-21;
HEADER;
FILE_DESCRIPTION (( 'STEP AP203' ),
    '1' );
FILE_NAME ('9896.STEP',
    '2022-07-07T09:35:28',
    ( '' ),
    ( '' ),
    'SwSTEP 2.0',
    'SolidWorks 2019',
    '' );
FILE_SCHEMA (( 'CONFIG_CONTROL_DESIGN' ));
ENDSEC;

DATA;
#1 = CARTESIAN_POINT ( 'NONE',  ( 0.000000000000000000, 0.000000000000000000, 637.0000000000000000 ) ) ;
#2 = DIRECTION ( 'NONE',  ( 1.000000000000000000, 0.000000000000000000, -0.000000000000000000 ) ) ;
#3 = CARTESIAN_POINT ( 'NONE',  ( 0.000000000000000000, 0.000000000000000000, 7.000000000000000000 ) ) ;
#4 = DIRECTION ( 'NONE',  ( 0.000000000000000000, 0.000000000000000000, 1.000000000000000000 ) ) ;
#5 = EDGE_CURVE ( 'NONE', #80, #273, #237, .T. ) ;
#6 = CARTESIAN_POINT ( 'NONE',  ( 12.00000000000000178, 1.469576158976824144E-15, 7.000000000000000000 ) ) ;
#7 = CARTESIAN_POINT ( 'NONE',  ( -9.199999999999999289, 1.126675055215564822E-15, 6.999999999999992006 ) ) ;
#8 = DIRECTION ( 'NONE',  ( 1.000000000000000000, 0.000000000000000000, 0.000000000000000000 ) ) ;
#9 = DIRECTION ( 'NONE',  ( 0.000000000000000000, 0.000000000000000000, 1.000000000000000000 ) ) ;
#10 = ORIENTED_EDGE ( 'NONE', *, *, #106, .T. ) ;
#11 = EDGE_CURVE ( 'NONE', #60, #223, #146, .T. ) ;
#12 = CIRCLE ( 'NONE', #232, 0.1999999999999996503 ) ;
#13 = CARTESIAN_POINT ( 'NONE',  ( 9.199999999999999289, 0.000000000000000000, 7.199999999999984190 ) ) ;
#14 = ORIENTED_EDGE ( 'NONE', *, *, #109, .T. ) ;
#15 = ORIENTED_EDGE ( 'NONE', *, *, #11, .F. ) ;
#16 = ORIENTED_EDGE ( 'NONE', *, *, #137, .F. ) ;
#17 = CC_DESIGN_DATE_AND_TIME_ASSIGNMENT ( #229, #187, ( #267 ) ) ;
#18 = PERSON_AND_ORGANIZATION ( #300, #278 ) ;
#19 = EDGE_CURVE ( 'NONE', #153, #273, #78, .T. ) ;
#20 = APPROVAL_ROLE ( '' ) ;
#21 = PERSON_AND_ORGANIZATION ( #300, #278 ) ;
#22 = DIRECTION ( 'NONE',  ( -0.000000000000000000, -0.000000000000000000, -1.000000000000000000 ) ) ;
#23 = CARTESIAN_POINT ( 'NONE',  ( 12.00000000000000178, 1.469576158976824144E-15, 0.000000000000000000 ) ) ;
#24 = DIRECTION ( 'NONE',  ( 1.000000000000000000, 0.000000000000000000, -0.000000000000000000 ) ) ;
#25 = CARTESIAN_POINT ( 'NONE',  ( 9.000000000000000000, 1.102182119232617714E-15, 7.199999999999984190 ) ) ;
#26 = DIRECTION ( 'NONE',  ( -0.000000000000000000, -0.000000000000000000, -1.000000000000000000 ) ) ;
#27 = SECURITY_CLASSIFICATION ( '', '', #41 ) ;
#28 = CYLINDRICAL_SURFACE ( 'NONE', #182, 12.00000000000000178 ) ;
#29 = DIRECTION ( 'NONE',  ( 0.000000000000000000, 0.000000000000000000, 1.000000000000000000 ) ) ;
#30 = FACE_OUTER_BOUND ( 'NONE', #217, .T. ) ;
#31 = ORIENTED_EDGE ( 'NONE', *, *, #5, .T. ) ;
#32 = DIRECTION ( 'NONE',  ( 0.000000000000000000, 0.000000000000000000, -1.000000000000000000 ) ) ;
#33 = APPROVAL ( #163, 'NEURÈENÝ' ) ;
#34 = ORIENTED_EDGE ( 'NONE', *, *, #19, .F. ) ;
#35 = VERTEX_POINT ( 'NONE', #274 ) ;
#36 = EDGE_LOOP ( 'NONE', ( #296, #52, #129, #246 ) ) ;
#37 = COORDINATED_UNIVERSAL_TIME_OFFSET ( 1, 0, .AHEAD. ) ;
#38 = ADVANCED_FACE ( 'NONE', ( #58 ), #197, .T. ) ;
#39 = AXIS2_PLACEMENT_3D ( 'NONE', #194, #200, #272 ) ;
#40 = PERSON_AND_ORGANIZATION ( #300, #278 ) ;
#41 = SECURITY_CLASSIFICATION_LEVEL ( 'unclassified' ) ;
#42 = AXIS2_PLACEMENT_3D ( 'NONE', #70, #120, #268 ) ;
#43 = PERSON_AND_ORGANIZATION_ROLE ( 'design_supplier' ) ;
#44 = EDGE_CURVE ( 'NONE', #273, #80, #136, .T. ) ;
#45 =( LENGTH_UNIT ( ) NAMED_UNIT ( * ) SI_UNIT ( .MILLI., .METRE. ) );
#46 = DIRECTION ( 'NONE',  ( 1.000000000000000000, 0.000000000000000000, 0.000000000000000000 ) ) ;
#47 = AXIS2_PLACEMENT_3D ( 'NONE', #241, #126, #216 ) ;
#48 = FACE_OUTER_BOUND ( 'NONE', #66, .T. ) ;
#49 = CYLINDRICAL_SURFACE ( 'NONE', #257, 9.000000000000000000 ) ;
#50 = FACE_OUTER_BOUND ( 'NONE', #271, .T. ) ;
#51 = CIRCLE ( 'NONE', #102, 9.199999999999999289 ) ;
#52 = ORIENTED_EDGE ( 'NONE', *, *, #106, .F. ) ;
#53 = EDGE_CURVE ( 'NONE', #153, #222, #189, .T. ) ;
#54 = PLANE ( 'NONE',  #47 ) ;
#55 = EDGE_LOOP ( 'NONE', ( #134, #293 ) ) ;
#56 = FACE_OUTER_BOUND ( 'NONE', #57, .T. ) ;
#57 = EDGE_LOOP ( 'NONE', ( #34, #92, #180, #31 ) ) ;
#58 = FACE_OUTER_BOUND ( 'NONE', #55, .T. ) ;
#59 = CIRCLE ( 'NONE', #81, 0.2000000000000005107 ) ;
#60 = VERTEX_POINT ( 'NONE', #68 ) ;
#61 = DATE_AND_TIME ( #140, #262 ) ;
#62 = CLOSED_SHELL ( 'NONE', ( #93, #302, #149, #123, #171, #234, #198, #38, #184 ) ) ;
#63 = CALENDAR_DATE ( 2022, 7, 7 ) ;
#64 = SHAPE_DEFINITION_REPRESENTATION ( #162, #114 ) ;
#65 = DIRECTION ( 'NONE',  ( -1.000000000000000000, 1.224646799147353207E-16, 0.000000000000000000 ) ) ;
#66 = EDGE_LOOP ( 'NONE', ( #14, #203 ) ) ;
#67 = DIRECTION ( 'NONE',  ( 0.000000000000000000, 0.000000000000000000, 1.000000000000000000 ) ) ;
#68 = CARTESIAN_POINT ( 'NONE',  ( -9.000000000000000000, 0.000000000000000000, 7.199999999999984190 ) ) ;
#69 = CIRCLE ( 'NONE', #298, 9.000000000000000000 ) ;
#70 = CARTESIAN_POINT ( 'NONE',  ( 0.000000000000000000, 0.000000000000000000, 7.199999999999984190 ) ) ;
#71 = CARTESIAN_POINT ( 'NONE',  ( 0.000000000000000000, 0.000000000000000000, 7.000000000000000000 ) ) ;
#72 = DIRECTION ( 'NONE',  ( 0.000000000000000000, 0.000000000000000000, 1.000000000000000000 ) ) ;
#73 = AXIS2_PLACEMENT_3D ( 'NONE', #193, #290, #231 ) ;
#74 = ORIENTED_EDGE ( 'NONE', *, *, #116, .F. ) ;
#75 = CC_DESIGN_PERSON_AND_ORGANIZATION_ASSIGNMENT ( #18, #85, ( #27 ) ) ;
#76 = CARTESIAN_POINT ( 'NONE',  ( 0.000000000000000000, 0.000000000000000000, 0.000000000000000000 ) ) ;
#77 = ORIENTED_EDGE ( 'NONE', *, *, #44, .T. ) ;
#78 = LINE ( 'NONE', #178, #265 ) ;
#79 = ORIENTED_EDGE ( 'NONE', *, *, #181, .T. ) ;
#80 = VERTEX_POINT ( 'NONE', #98 ) ;
#81 = AXIS2_PLACEMENT_3D ( 'NONE', #214, #188, #65 ) ;
#82 = EDGE_CURVE ( 'NONE', #219, #35, #227, .T. ) ;
#83 = DATE_AND_TIME ( #118, #220 ) ;
#84 = APPROVAL_PERSON_ORGANIZATION ( #279, #33, #283 ) ;
#85 = PERSON_AND_ORGANIZATION_ROLE ( 'classification_officer' ) ;
#86 = APPROVAL_DATE_TIME ( #255, #159 ) ;
#87 = DESIGN_CONTEXT ( 'detailed design', #256, 'design' ) ;
#88 = DATE_TIME_ROLE ( 'classification_date' ) ;
#89 = MANIFOLD_SOLID_BREP ( 'Zaoblit1', #62 ) ;
#90 = AXIS2_PLACEMENT_3D ( 'NONE', #95, #67, #46 ) ;
#91 = PLANE ( 'NONE',  #294 ) ;
#92 = ORIENTED_EDGE ( 'NONE', *, *, #109, .F. ) ;
#93 = ADVANCED_FACE ( 'NONE', ( #30 ), #121, .F. ) ;
#94 = FACE_OUTER_BOUND ( 'NONE', #190, .T. ) ;
#95 = CARTESIAN_POINT ( 'NONE',  ( 0.000000000000000000, 0.000000000000000000, 637.0000000000000000 ) ) ;
#96 = DIRECTION ( 'NONE',  ( 0.000000000000000000, 0.000000000000000000, 1.000000000000000000 ) ) ;
#97 = DIRECTION ( 'NONE',  ( -0.000000000000000000, -0.000000000000000000, -1.000000000000000000 ) ) ;
#98 = CARTESIAN_POINT ( 'NONE',  ( -12.00000000000000178, 0.000000000000000000, 0.000000000000000000 ) ) ;
#99 = DIRECTION ( 'NONE',  ( -0.000000000000000000, -0.000000000000000000, -1.000000000000000000 ) ) ;
#100 = CC_DESIGN_DATE_AND_TIME_ASSIGNMENT ( #83, #88, ( #27 ) ) ;
#101 = DIRECTION ( 'NONE',  ( -0.000000000000000000, -0.000000000000000000, -1.000000000000000000 ) ) ;
#102 = AXIS2_PLACEMENT_3D ( 'NONE', #196, #270, #152 ) ;
#103 = DIRECTION ( 'NONE',  ( 0.000000000000000000, 0.000000000000000000, 1.000000000000000000 ) ) ;
#104 = ORIENTED_EDGE ( 'NONE', *, *, #116, .T. ) ;
#105 = EDGE_LOOP ( 'NONE', ( #135, #79 ) ) ;
#106 = EDGE_CURVE ( 'NONE', #223, #60, #69, .T. ) ;
#107 = AXIS2_PLACEMENT_3D ( 'NONE', #297, #151, #242 ) ;
#108 = ORIENTED_EDGE ( 'NONE', *, *, #53, .F. ) ;
#109 = EDGE_CURVE ( 'NONE', #222, #153, #238, .T. ) ;
#110 = APPLICATION_CONTEXT ( 'configuration controlled 3d designs of mechanical parts and assemblies' ) ;
#111 = AXIS2_PLACEMENT_3D ( 'NONE', #299, #29, #8 ) ;
#112 = DATE_AND_TIME ( #281, #252 ) ;
#113 = MECHANICAL_CONTEXT ( 'NONE', #110, 'mechanical' ) ;
#114 = ADVANCED_BREP_SHAPE_REPRESENTATION ( '9896', ( #89, #73 ), #210 ) ;
#115 = COORDINATED_UNIVERSAL_TIME_OFFSET ( 1, 0, .AHEAD. ) ;
#116 = EDGE_CURVE ( 'NONE', #35, #60, #243, .T. ) ;
#117 = AXIS2_PLACEMENT_3D ( 'NONE', #71, #96, #295 ) ;
#118 = CALENDAR_DATE ( 2022, 7, 7 ) ;
#119 = CC_DESIGN_APPROVAL ( #282, ( #267 ) ) ;
#120 = DIRECTION ( 'NONE',  ( 0.000000000000000000, 0.000000000000000000, 1.000000000000000000 ) ) ;
#121 = TOROIDAL_SURFACE ( 'NONE', #254, 9.199999999999999289, 0.2000000000000000111 ) ;
#122 = DIRECTION ( 'NONE',  ( 1.000000000000000000, 0.000000000000000000, 0.000000000000000000 ) ) ;
#123 = ADVANCED_FACE ( 'NONE', ( #56 ), #173, .T. ) ;
#124 = VECTOR ( 'NONE', #22, 1000.000000000000000 ) ;
#125 = CARTESIAN_POINT ( 'NONE',  ( 0.000000000000000000, 0.000000000000000000, 7.000000000000000000 ) ) ;
#126 = DIRECTION ( 'NONE',  ( 0.000000000000000000, 0.000000000000000000, 1.000000000000000000 ) ) ;
#127 = ORIENTED_EDGE ( 'NONE', *, *, #251, .T. ) ;
#128 = DIRECTION ( 'NONE',  ( 1.000000000000000000, 0.000000000000000000, 0.000000000000000000 ) ) ;
#129 = ORIENTED_EDGE ( 'NONE', *, *, #133, .T. ) ;
#130 = APPROVAL_PERSON_ORGANIZATION ( #208, #159, #306 ) ;
#131 = DIRECTION ( 'NONE',  ( -1.000000000000000000, 0.000000000000000000, 0.000000000000000000 ) ) ;
#132 = ORIENTED_EDGE ( 'NONE', *, *, #82, .F. ) ;
#133 = EDGE_CURVE ( 'NONE', #223, #175, #12, .T. ) ;
#134 = ORIENTED_EDGE ( 'NONE', *, *, #261, .T. ) ;
#135 = ORIENTED_EDGE ( 'NONE', *, *, #225, .T. ) ;
#136 = CIRCLE ( 'NONE', #264, 12.00000000000000178 ) ;
#137 = EDGE_CURVE ( 'NONE', #219, #223, #289, .T. ) ;
#138 = PERSON_AND_ORGANIZATION ( #300, #278 ) ;
#139 = COORDINATED_UNIVERSAL_TIME_OFFSET ( 1, 0, .AHEAD. ) ;
#140 = CALENDAR_DATE ( 2022, 7, 7 ) ;
#141 = CC_DESIGN_PERSON_AND_ORGANIZATION_ASSIGNMENT ( #40, #259, ( #253 ) ) ;
#142 = COORDINATED_UNIVERSAL_TIME_OFFSET ( 1, 0, .AHEAD. ) ;
#143 = APPLICATION_PROTOCOL_DEFINITION ( 'international standard', 'config_control_design', 1994, #110 ) ;
#144 = DIRECTION ( 'NONE',  ( -1.000000000000000000, 0.000000000000000000, 0.000000000000000000 ) ) ;
#145 =( NAMED_UNIT ( * ) SI_UNIT ( $, .STERADIAN. ) SOLID_ANGLE_UNIT ( ) );
#146 = CIRCLE ( 'NONE', #111, 9.000000000000000000 ) ;
#147 = CARTESIAN_POINT ( 'NONE',  ( -12.00000000000000178, 0.000000000000000000, 7.000000000000000000 ) ) ;
#148 = CARTESIAN_POINT ( 'NONE',  ( 9.199999999999999289, 0.000000000000000000, 6.999999999999992006 ) ) ;
#149 = ADVANCED_FACE ( 'NONE', ( #50 ), #28, .T. ) ;
#150 = FACE_BOUND ( 'NONE', #105, .T. ) ;
#151 = DIRECTION ( 'NONE',  ( 0.000000000000000000, 0.000000000000000000, 1.000000000000000000 ) ) ;
#152 = DIRECTION ( 'NONE',  ( 1.000000000000000000, 0.000000000000000000, 0.000000000000000000 ) ) ;
#153 = VERTEX_POINT ( 'NONE', #6 ) ;
#154 = DIRECTION ( 'NONE',  ( 1.000000000000000000, 0.000000000000000000, 0.000000000000000000 ) ) ;
#155 = ORIENTED_EDGE ( 'NONE', *, *, #11, .T. ) ;
#156 = ORIENTED_EDGE ( 'NONE', *, *, #261, .F. ) ;
#157 = CARTESIAN_POINT ( 'NONE',  ( 0.000000000000000000, 0.000000000000000000, 637.0000000000000000 ) ) ;
#158 = ORIENTED_EDGE ( 'NONE', *, *, #44, .F. ) ;
#159 = APPROVAL ( #164, 'NEURÈENÝ' ) ;
#160 = AXIS2_PLACEMENT_3D ( 'NONE', #3, #9, #176 ) ;
#161 = CC_DESIGN_APPROVAL ( #159, ( #287 ) ) ;
#162 = PRODUCT_DEFINITION_SHAPE ( 'NONE', 'NONE',  #267 ) ;
#163 = APPROVAL_STATUS ( 'not_yet_approved' ) ;
#164 = APPROVAL_STATUS ( 'not_yet_approved' ) ;
#165 = COORDINATED_UNIVERSAL_TIME_OFFSET ( 1, 0, .AHEAD. ) ;
#166 = LOCAL_TIME ( 11, 35, 28.00000000000000000, #37 ) ;
#167 = FACE_OUTER_BOUND ( 'NONE', #201, .T. ) ;
#168 = CC_DESIGN_SECURITY_CLASSIFICATION ( #27, ( #287 ) ) ;
#169 = CARTESIAN_POINT ( 'NONE',  ( 0.000000000000000000, 0.000000000000000000, 637.0000000000000000 ) ) ;
#170 = CARTESIAN_POINT ( 'NONE',  ( 9.000000000000000000, 1.102182119232617714E-15, 637.0000000000000000 ) ) ;
#171 = ADVANCED_FACE ( 'NONE', ( #150, #48 ), #54, .T. ) ;
#172 = DIRECTION ( 'NONE',  ( -0.000000000000000000, -0.000000000000000000, -1.000000000000000000 ) ) ;
#173 = CYLINDRICAL_SURFACE ( 'NONE', #275, 12.00000000000000178 ) ;
#174 = DIRECTION ( 'NONE',  ( -0.000000000000000000, -0.000000000000000000, -1.000000000000000000 ) ) ;
#175 = VERTEX_POINT ( 'NONE', #148 ) ;
#176 = DIRECTION ( 'NONE',  ( 1.000000000000000000, 0.000000000000000000, 0.000000000000000000 ) ) ;
#177 = VERTEX_POINT ( 'NONE', #7 ) ;
#178 = CARTESIAN_POINT ( 'NONE',  ( 12.00000000000000178, 1.469576158976824144E-15, 7.000000000000000000 ) ) ;
#179 = TOROIDAL_SURFACE ( 'NONE', #42, 9.199999999999999289, 0.2000000000000000111 ) ;
#180 = ORIENTED_EDGE ( 'NONE', *, *, #204, .T. ) ;
#181 = EDGE_CURVE ( 'NONE', #177, #175, #51, .T. ) ;
#182 = AXIS2_PLACEMENT_3D ( 'NONE', #125, #99, #266 ) ;
#183 = PERSON_AND_ORGANIZATION_ROLE ( 'creator' ) ;
#184 = ADVANCED_FACE ( 'NONE', ( #218 ), #179, .F. ) ;
#185 = APPLICATION_PROTOCOL_DEFINITION ( 'international standard', 'config_control_design', 1994, #256 ) ;
#186 = AXIS2_PLACEMENT_3D ( 'NONE', #157, #213, #24 ) ;
#187 = DATE_TIME_ROLE ( 'creation_date' ) ;
#188 = DIRECTION ( 'NONE',  ( 1.224646799147353207E-16, 1.000000000000000000, -0.000000000000000000 ) ) ;
#189 = CIRCLE ( 'NONE', #160, 12.00000000000000178 ) ;
#190 = EDGE_LOOP ( 'NONE', ( #16, #156, #104, #155 ) ) ;
#191 = CYLINDRICAL_SURFACE ( 'NONE', #209, 9.000000000000000000 ) ;
#192 = CARTESIAN_POINT ( 'NONE',  ( -9.000000000000000000, 0.000000000000000000, 637.0000000000000000 ) ) ;
#193 = CARTESIAN_POINT ( 'NONE',  ( 0.000000000000000000, 0.000000000000000000, 0.000000000000000000 ) ) ;
#194 = CARTESIAN_POINT ( 'NONE',  ( 0.000000000000000000, 0.000000000000000000, 637.0000000000000000 ) ) ;
#195 = VECTOR ( 'NONE', #174, 1000.000000000000000 ) ;
#196 = CARTESIAN_POINT ( 'NONE',  ( 0.000000000000000000, 0.000000000000000000, 7.000000000000000000 ) ) ;
#197 = PLANE ( 'NONE',  #186 ) ;
#198 = ADVANCED_FACE ( 'NONE', ( #94 ), #191, .T. ) ;
#199 = LOCAL_TIME ( 11, 35, 28.00000000000000000, #139 ) ;
#200 = DIRECTION ( 'NONE',  ( 0.000000000000000000, 0.000000000000000000, 1.000000000000000000 ) ) ;
#201 = EDGE_LOOP ( 'NONE', ( #132, #244, #10, #74 ) ) ;
#202 = ORIENTED_EDGE ( 'NONE', *, *, #5, .F. ) ;
#203 = ORIENTED_EDGE ( 'NONE', *, *, #53, .T. ) ;
#204 = EDGE_CURVE ( 'NONE', #222, #80, #263, .T. ) ;
#205 = AXIS2_PLACEMENT_3D ( 'NONE', #239, #260, #235 ) ;
#206 = CALENDAR_DATE ( 2022, 7, 7 ) ;
#207 = PERSON_AND_ORGANIZATION_ROLE ( 'creator' ) ;
#208 = PERSON_AND_ORGANIZATION ( #300, #278 ) ;
#209 = AXIS2_PLACEMENT_3D ( 'NONE', #1, #172, #144 ) ;
#210 =( GEOMETRIC_REPRESENTATION_CONTEXT ( 3 ) GLOBAL_UNCERTAINTY_ASSIGNED_CONTEXT ( ( #236 ) ) GLOBAL_UNIT_ASSIGNED_CONTEXT ( ( #45, #288, #145 ) ) REPRESENTATION_CONTEXT ( 'NONE', 'WORKASPACE' ) );
#211 = FACE_OUTER_BOUND ( 'NONE', #285, .T. ) ;
#212 = CARTESIAN_POINT ( 'NONE',  ( -12.00000000000000178, 0.000000000000000000, 7.000000000000000000 ) ) ;
#213 = DIRECTION ( 'NONE',  ( 0.000000000000000000, 0.000000000000000000, 1.000000000000000000 ) ) ;
#214 = CARTESIAN_POINT ( 'NONE',  ( -9.199999999999999289, 1.126675055215564822E-15, 7.199999999999984190 ) ) ;
#215 = CARTESIAN_POINT ( 'NONE',  ( 0.000000000000000000, 0.000000000000000000, 7.000000000000000000 ) ) ;
#216 = DIRECTION ( 'NONE',  ( 1.000000000000000000, 0.000000000000000000, -0.000000000000000000 ) ) ;
#217 = EDGE_LOOP ( 'NONE', ( #15, #127, #280, #248 ) ) ;
#218 = FACE_OUTER_BOUND ( 'NONE', #36, .T. ) ;
#219 = VERTEX_POINT ( 'NONE', #284 ) ;
#220 = LOCAL_TIME ( 11, 35, 28.00000000000000000, #165 ) ;
#221 = DIRECTION ( 'NONE',  ( -0.000000000000000000, -0.000000000000000000, -1.000000000000000000 ) ) ;
#222 = VERTEX_POINT ( 'NONE', #147 ) ;
#223 = VERTEX_POINT ( 'NONE', #25 ) ;
#224 = CIRCLE ( 'NONE', #205, 9.199999999999999289 ) ;
#225 = EDGE_CURVE ( 'NONE', #175, #177, #224, .T. ) ;
#226 = APPROVAL_DATE_TIME ( #61, #33 ) ;
#227 = CIRCLE ( 'NONE', #39, 9.000000000000000000 ) ;
#228 = CIRCLE ( 'NONE', #90, 9.000000000000000000 ) ;
#229 = DATE_AND_TIME ( #63, #166 ) ;
#230 = PERSON_AND_ORGANIZATION ( #300, #278 ) ;
#231 = DIRECTION ( 'NONE',  ( 1.000000000000000000, 0.000000000000000000, 0.000000000000000000 ) ) ;
#232 = AXIS2_PLACEMENT_3D ( 'NONE', #13, #245, #32 ) ;
#233 = DIRECTION ( 'NONE',  ( -1.000000000000000000, 0.000000000000000000, 0.000000000000000000 ) ) ;
#234 = ADVANCED_FACE ( 'NONE', ( #211 ), #91, .F. ) ;
#235 = DIRECTION ( 'NONE',  ( 1.000000000000000000, 0.000000000000000000, 0.000000000000000000 ) ) ;
#236 = UNCERTAINTY_MEASURE_WITH_UNIT (LENGTH_MEASURE( 1.000000000000000082E-05 ), #45, 'distance_accuracy_value', 'NONE');
#237 = CIRCLE ( 'NONE', #107, 12.00000000000000178 ) ;
#238 = CIRCLE ( 'NONE', #117, 12.00000000000000178 ) ;
#239 = CARTESIAN_POINT ( 'NONE',  ( 0.000000000000000000, 0.000000000000000000, 7.000000000000000000 ) ) ;
#240 = CC_DESIGN_PERSON_AND_ORGANIZATION_ASSIGNMENT ( #138, #183, ( #287 ) ) ;
#241 = CARTESIAN_POINT ( 'NONE',  ( 0.000000000000000000, 0.000000000000000000, 7.000000000000000000 ) ) ;
#242 = DIRECTION ( 'NONE',  ( 1.000000000000000000, 0.000000000000000000, 0.000000000000000000 ) ) ;
#243 = LINE ( 'NONE', #192, #195 ) ;
#244 = ORIENTED_EDGE ( 'NONE', *, *, #137, .T. ) ;
#245 = DIRECTION ( 'NONE',  ( 0.000000000000000000, -1.000000000000000000, 0.000000000000000000 ) ) ;
#246 = ORIENTED_EDGE ( 'NONE', *, *, #181, .F. ) ;
#247 = VECTOR ( 'NONE', #26, 1000.000000000000000 ) ;
#248 = ORIENTED_EDGE ( 'NONE', *, *, #133, .F. ) ;
#249 = ORIENTED_EDGE ( 'NONE', *, *, #19, .T. ) ;
#250 = PRODUCT_RELATED_PRODUCT_CATEGORY ( 'detail', '', ( #253 ) ) ;
#251 = EDGE_CURVE ( 'NONE', #60, #177, #59, .T. ) ;
#252 = LOCAL_TIME ( 11, 35, 28.00000000000000000, #115 ) ;
#253 = PRODUCT ( '9896', '9896', '', ( #113 ) ) ;
#254 = AXIS2_PLACEMENT_3D ( 'NONE', #269, #72, #128 ) ;
#255 = DATE_AND_TIME ( #206, #199 ) ;
#256 = APPLICATION_CONTEXT ( 'configuration controlled 3d designs of mechanical parts and assemblies' ) ;
#257 = AXIS2_PLACEMENT_3D ( 'NONE', #169, #97, #233 ) ;
#258 = CC_DESIGN_PERSON_AND_ORGANIZATION_ASSIGNMENT ( #230, #207, ( #267 ) ) ;
#259 = PERSON_AND_ORGANIZATION_ROLE ( 'design_owner' ) ;
#260 = DIRECTION ( 'NONE',  ( -0.000000000000000000, -0.000000000000000000, -1.000000000000000000 ) ) ;
#261 = EDGE_CURVE ( 'NONE', #35, #219, #228, .T. ) ;
#262 = LOCAL_TIME ( 11, 35, 28.00000000000000000, #142 ) ;
#263 = LINE ( 'NONE', #212, #124 ) ;
#264 = AXIS2_PLACEMENT_3D ( 'NONE', #76, #292, #122 ) ;
#265 = VECTOR ( 'NONE', #101, 1000.000000000000000 ) ;
#266 = DIRECTION ( 'NONE',  ( -1.000000000000000000, 0.000000000000000000, 0.000000000000000000 ) ) ;
#267 = PRODUCT_DEFINITION ( 'NEZNÁMÝ', '', #287, #87 ) ;
#268 = DIRECTION ( 'NONE',  ( 1.000000000000000000, 0.000000000000000000, 0.000000000000000000 ) ) ;
#269 = CARTESIAN_POINT ( 'NONE',  ( 0.000000000000000000, 0.000000000000000000, 7.199999999999984190 ) ) ;
#270 = DIRECTION ( 'NONE',  ( -0.000000000000000000, -0.000000000000000000, -1.000000000000000000 ) ) ;
#271 = EDGE_LOOP ( 'NONE', ( #108, #249, #77, #277 ) ) ;
#272 = DIRECTION ( 'NONE',  ( 1.000000000000000000, 0.000000000000000000, 0.000000000000000000 ) ) ;
#273 = VERTEX_POINT ( 'NONE', #23 ) ;
#274 = CARTESIAN_POINT ( 'NONE',  ( -9.000000000000000000, 0.000000000000000000, 637.0000000000000000 ) ) ;
#275 = AXIS2_PLACEMENT_3D ( 'NONE', #215, #221, #131 ) ;
#276 = CC_DESIGN_PERSON_AND_ORGANIZATION_ASSIGNMENT ( #303, #43, ( #287 ) ) ;
#277 = ORIENTED_EDGE ( 'NONE', *, *, #204, .F. ) ;
#278 = ORGANIZATION ( 'NEURÈENÝ', 'NEURÈENÝ', '' ) ;
#279 = PERSON_AND_ORGANIZATION ( #300, #278 ) ;
#280 = ORIENTED_EDGE ( 'NONE', *, *, #225, .F. ) ;
#281 = CALENDAR_DATE ( 2022, 7, 7 ) ;
#282 = APPROVAL ( #307, 'NEURÈENÝ' ) ;
#283 = APPROVAL_ROLE ( '' ) ;
#284 = CARTESIAN_POINT ( 'NONE',  ( 9.000000000000000000, 1.102182119232617714E-15, 637.0000000000000000 ) ) ;
#285 = EDGE_LOOP ( 'NONE', ( #202, #158 ) ) ;
#286 = CARTESIAN_POINT ( 'NONE',  ( 0.000000000000000000, 0.000000000000000000, 0.000000000000000000 ) ) ;
#287 = PRODUCT_DEFINITION_FORMATION_WITH_SPECIFIED_SOURCE ( 'LIBOVOLNÝ', '', #253, .NOT_KNOWN. ) ;
#288 =( NAMED_UNIT ( * ) PLANE_ANGLE_UNIT ( ) SI_UNIT ( $, .RADIAN. ) );
#289 = LINE ( 'NONE', #170, #247 ) ;
#290 = DIRECTION ( 'NONE',  ( 0.000000000000000000, 0.000000000000000000, 1.000000000000000000 ) ) ;
#291 = CARTESIAN_POINT ( 'NONE',  ( 0.000000000000000000, 0.000000000000000000, 7.199999999999984190 ) ) ;
#292 = DIRECTION ( 'NONE',  ( 0.000000000000000000, 0.000000000000000000, 1.000000000000000000 ) ) ;
#293 = ORIENTED_EDGE ( 'NONE', *, *, #82, .T. ) ;
#294 = AXIS2_PLACEMENT_3D ( 'NONE', #286, #4, #2 ) ;
#295 = DIRECTION ( 'NONE',  ( 1.000000000000000000, 0.000000000000000000, 0.000000000000000000 ) ) ;
#296 = ORIENTED_EDGE ( 'NONE', *, *, #251, .F. ) ;
#297 = CARTESIAN_POINT ( 'NONE',  ( 0.000000000000000000, 0.000000000000000000, 0.000000000000000000 ) ) ;
#298 = AXIS2_PLACEMENT_3D ( 'NONE', #291, #103, #154 ) ;
#299 = CARTESIAN_POINT ( 'NONE',  ( 0.000000000000000000, 0.000000000000000000, 7.199999999999984190 ) ) ;
#300 = PERSON ( 'NEURÈENÝ', 'NEURÈENÝ', 'NEURÈENÝ', ('NEURÈENÝ'), ('NEURÈENÝ'), ('NEURÈENÝ') ) ;
#301 = APPROVAL_PERSON_ORGANIZATION ( #21, #282, #20 ) ;
#302 = ADVANCED_FACE ( 'NONE', ( #167 ), #49, .T. ) ;
#303 = PERSON_AND_ORGANIZATION ( #300, #278 ) ;
#304 = CC_DESIGN_APPROVAL ( #33, ( #27 ) ) ;
#305 = APPROVAL_DATE_TIME ( #112, #282 ) ;
#306 = APPROVAL_ROLE ( '' ) ;
#307 = APPROVAL_STATUS ( 'not_yet_approved' ) ;
ENDSEC;
END-ISO-10303-21;
