ISO-10303-21;
HEADER;
FILE_DESCRIPTION (( 'STEP AP203' ),
    '1' );
FILE_NAME ('b9b0.STEP',
    '2022-07-07T10:16:26',
    ( '' ),
    ( '' ),
    'SwSTEP 2.0',
    'SolidWorks 2019',
    '' );
FILE_SCHEMA (( 'CONFIG_CONTROL_DESIGN' ));
ENDSEC;

DATA;
#1 = EDGE_CURVE ( 'NONE', #169, #294, #270, .T. ) ;
#2 = PLANE ( 'NONE',  #129 ) ;
#3 = CARTESIAN_POINT ( 'NONE',  ( 0.000000000000000000, 0.000000000000000000, 103.0000000000000142 ) ) ;
#4 = VECTOR ( 'NONE', #13, 1000.000000000000000 ) ;
#5 = ORIENTED_EDGE ( 'NONE', *, *, #29, .F. ) ;
#6 = ORIENTED_EDGE ( 'NONE', *, *, #83, .T. ) ;
#7 = CIRCLE ( 'NONE', #32, 5.000000000000000000 ) ;
#8 = ORIENTED_EDGE ( 'NONE', *, *, #29, .T. ) ;
#9 = ORIENTED_EDGE ( 'NONE', *, *, #142, .T. ) ;
#10 = CARTESIAN_POINT ( 'NONE',  ( 0.000000000000000000, 0.000000000000000000, 3.000000000000000000 ) ) ;
#11 = DATE_TIME_ROLE ( 'classification_date' ) ;
#12 = AXIS2_PLACEMENT_3D ( 'NONE', #235, #73, #47 ) ;
#13 = DIRECTION ( 'NONE',  ( -0.000000000000000000, -0.000000000000000000, -1.000000000000000000 ) ) ;
#14 = CALENDAR_DATE ( 2022, 7, 7 ) ;
#15 = DIRECTION ( 'NONE',  ( 1.000000000000000000, 0.000000000000000000, 0.000000000000000000 ) ) ;
#16 = CARTESIAN_POINT ( 'NONE',  ( 0.000000000000000000, 0.000000000000000000, 0.000000000000000000 ) ) ;
#17 = PERSON_AND_ORGANIZATION ( #26, #38 ) ;
#18 = ADVANCED_FACE ( 'NONE', ( #249 ), #33, .T. ) ;
#19 = DIRECTION ( 'NONE',  ( 0.000000000000000000, 0.000000000000000000, 1.000000000000000000 ) ) ;
#20 = DIRECTION ( 'NONE',  ( 0.000000000000000000, 0.000000000000000000, 1.000000000000000000 ) ) ;
#21 = AXIS2_PLACEMENT_3D ( 'NONE', #304, #113, #198 ) ;
#22 = DIRECTION ( 'NONE',  ( 0.000000000000000000, 0.000000000000000000, 1.000000000000000000 ) ) ;
#23 = LOCAL_TIME ( 12, 16, 26.00000000000000000, #62 ) ;
#24 = FACE_OUTER_BOUND ( 'NONE', #104, .T. ) ;
#25 = APPROVAL ( #298, 'NEURÈENÝ' ) ;
#26 = PERSON ( 'NEURÈENÝ', 'NEURÈENÝ', 'NEURÈENÝ', ('NEURÈENÝ'), ('NEURÈENÝ'), ('NEURÈENÝ') ) ;
#27 = EDGE_LOOP ( 'NONE', ( #121, #5, #118, #6 ) ) ;
#28 = VERTEX_POINT ( 'NONE', #201 ) ;
#29 = EDGE_CURVE ( 'NONE', #293, #191, #117, .T. ) ;
#30 = APPLICATION_CONTEXT ( 'configuration controlled 3d designs of mechanical parts and assemblies' ) ;
#31 = ORIENTED_EDGE ( 'NONE', *, *, #1, .F. ) ;
#32 = AXIS2_PLACEMENT_3D ( 'NONE', #136, #115, #60 ) ;
#33 = CYLINDRICAL_SURFACE ( 'NONE', #238, 5.000000000000000000 ) ;
#34 = APPROVAL_DATE_TIME ( #125, #100 ) ;
#35 = DIRECTION ( 'NONE',  ( 0.000000000000000000, 0.000000000000000000, 1.000000000000000000 ) ) ;
#36 = DIRECTION ( 'NONE',  ( 1.000000000000000000, 0.000000000000000000, 0.000000000000000000 ) ) ;
#37 = DATE_TIME_ROLE ( 'creation_date' ) ;
#38 = ORGANIZATION ( 'NEURÈENÝ', 'NEURÈENÝ', '' ) ;
#39 = DIRECTION ( 'NONE',  ( 0.000000000000000000, 0.000000000000000000, 1.000000000000000000 ) ) ;
#40 = DATE_AND_TIME ( #302, #77 ) ;
#41 = DIRECTION ( 'NONE',  ( 1.000000000000000000, 0.000000000000000000, 0.000000000000000000 ) ) ;
#42 = SECURITY_CLASSIFICATION_LEVEL ( 'unclassified' ) ;
#43 = VECTOR ( 'NONE', #149, 1000.000000000000000 ) ;
#44 = COORDINATED_UNIVERSAL_TIME_OFFSET ( 1, 0, .AHEAD. ) ;
#45 = EDGE_CURVE ( 'NONE', #193, #28, #275, .T. ) ;
#46 = CARTESIAN_POINT ( 'NONE',  ( 2.750000000000000000, 3.367778697655221012E-16, 3.199999999999994404 ) ) ;
#47 = DIRECTION ( 'NONE',  ( 1.000000000000000000, 0.000000000000000000, 0.000000000000000000 ) ) ;
#48 = CARTESIAN_POINT ( 'NONE',  ( 0.000000000000000000, 0.000000000000000000, 103.0000000000000142 ) ) ;
#49 = LOCAL_TIME ( 12, 16, 26.00000000000000000, #175 ) ;
#50 = APPROVAL ( #232, 'NEURÈENÝ' ) ;
#51 = ORIENTED_EDGE ( 'NONE', *, *, #230, .F. ) ;
#52 = ORIENTED_EDGE ( 'NONE', *, *, #214, .T. ) ;
#53 = AXIS2_PLACEMENT_3D ( 'NONE', #234, #262, #75 ) ;
#54 = EDGE_LOOP ( 'NONE', ( #31, #119, #123, #167 ) ) ;
#55 = CARTESIAN_POINT ( 'NONE',  ( 2.750000000000000000, 3.367778697655221012E-16, 103.0000000000000142 ) ) ;
#56 = DESIGN_CONTEXT ( 'detailed design', #280, 'design' ) ;
#57 = PRODUCT_RELATED_PRODUCT_CATEGORY ( 'detail', '', ( #236 ) ) ;
#58 = DIRECTION ( 'NONE',  ( 1.000000000000000000, 0.000000000000000000, -0.000000000000000000 ) ) ;
#59 = CYLINDRICAL_SURFACE ( 'NONE', #171, 2.750000000000000000 ) ;
#60 = DIRECTION ( 'NONE',  ( 1.000000000000000000, 0.000000000000000000, 0.000000000000000000 ) ) ;
#61 = DIRECTION ( 'NONE',  ( -1.000000000000000000, 0.000000000000000000, 0.000000000000000000 ) ) ;
#62 = COORDINATED_UNIVERSAL_TIME_OFFSET ( 1, 0, .AHEAD. ) ;
#63 = AXIS2_PLACEMENT_3D ( 'NONE', #137, #233, #286 ) ;
#64 = EDGE_CURVE ( 'NONE', #293, #101, #105, .T. ) ;
#65 = DIRECTION ( 'NONE',  ( 0.000000000000000000, 0.000000000000000000, 1.000000000000000000 ) ) ;
#66 =( NAMED_UNIT ( * ) SI_UNIT ( $, .STERADIAN. ) SOLID_ANGLE_UNIT ( ) );
#67 = DATE_AND_TIME ( #14, #221 ) ;
#68 = ADVANCED_FACE ( 'NONE', ( #278 ), #248, .F. ) ;
#69 = CC_DESIGN_PERSON_AND_ORGANIZATION_ASSIGNMENT ( #152, #111, ( #236 ) ) ;
#70 = CIRCLE ( 'NONE', #272, 0.2000000000000000944 ) ;
#71 = CARTESIAN_POINT ( 'NONE',  ( 0.000000000000000000, 0.000000000000000000, 3.199999999999994404 ) ) ;
#72 = CARTESIAN_POINT ( 'NONE',  ( 5.000000000000000000, 6.123233995736766282E-16, 3.000000000000000000 ) ) ;
#73 = DIRECTION ( 'NONE',  ( -0.000000000000000000, -0.000000000000000000, -1.000000000000000000 ) ) ;
#74 = ADVANCED_FACE ( 'NONE', ( #197 ), #59, .T. ) ;
#75 = DIRECTION ( 'NONE',  ( 1.000000000000000000, 0.000000000000000000, 0.000000000000000000 ) ) ;
#76 = AXIS2_PLACEMENT_3D ( 'NONE', #116, #287, #186 ) ;
#77 = LOCAL_TIME ( 12, 16, 26.00000000000000000, #205 ) ;
#78 = EDGE_CURVE ( 'NONE', #28, #216, #227, .T. ) ;
#79 = ORIENTED_EDGE ( 'NONE', *, *, #112, .F. ) ;
#80 = CLOSED_SHELL ( 'NONE', ( #252, #223, #18, #290, #156, #190, #74, #271, #68 ) ) ;
#81 = EDGE_LOOP ( 'NONE', ( #291, #164 ) ) ;
#82 = ORIENTED_EDGE ( 'NONE', *, *, #303, .T. ) ;
#83 = EDGE_CURVE ( 'NONE', #101, #220, #98, .T. ) ;
#84 = AXIS2_PLACEMENT_3D ( 'NONE', #85, #65, #250 ) ;
#85 = CARTESIAN_POINT ( 'NONE',  ( 0.000000000000000000, 0.000000000000000000, 3.199999999999994404 ) ) ;
#86 = DATE_AND_TIME ( #225, #163 ) ;
#87 = DIRECTION ( 'NONE',  ( -1.000000000000000000, 1.224646799147353207E-16, 0.000000000000000000 ) ) ;
#88 = APPROVAL_ROLE ( '' ) ;
#89 = CARTESIAN_POINT ( 'NONE',  ( 0.000000000000000000, 0.000000000000000000, 103.0000000000000142 ) ) ;
#90 = CC_DESIGN_APPROVAL ( #100, ( #178 ) ) ;
#91 = PERSON_AND_ORGANIZATION ( #26, #38 ) ;
#92 = APPROVAL_ROLE ( '' ) ;
#93 = CARTESIAN_POINT ( 'NONE',  ( 0.000000000000000000, 0.000000000000000000, 3.199999999999994404 ) ) ;
#94 = AXIS2_PLACEMENT_3D ( 'NONE', #253, #255, #41 ) ;
#95 = PLANE ( 'NONE',  #282 ) ;
#96 = DIRECTION ( 'NONE',  ( 1.000000000000000000, 0.000000000000000000, 0.000000000000000000 ) ) ;
#97 = CYLINDRICAL_SURFACE ( 'NONE', #63, 5.000000000000000000 ) ;
#98 = CIRCLE ( 'NONE', #144, 5.000000000000000000 ) ;
#99 = EDGE_LOOP ( 'NONE', ( #8, #269 ) ) ;
#100 = APPROVAL ( #276, 'NEURÈENÝ' ) ;
#101 = VERTEX_POINT ( 'NONE', #251 ) ;
#102 = CIRCLE ( 'NONE', #206, 2.750000000000000000 ) ;
#103 = ORIENTED_EDGE ( 'NONE', *, *, #277, .F. ) ;
#104 = EDGE_LOOP ( 'NONE', ( #266, #217, #195, #240 ) ) ;
#105 = LINE ( 'NONE', #274, #162 ) ;
#106 = PERSON_AND_ORGANIZATION ( #26, #38 ) ;
#107 = CIRCLE ( 'NONE', #12, 2.949999999999999734 ) ;
#108 = PERSON_AND_ORGANIZATION ( #26, #38 ) ;
#109 = CARTESIAN_POINT ( 'NONE',  ( 0.000000000000000000, 0.000000000000000000, 3.000000000000000000 ) ) ;
#110 = CARTESIAN_POINT ( 'NONE',  ( 0.000000000000000000, 0.000000000000000000, 3.000000000000000000 ) ) ;
#111 = PERSON_AND_ORGANIZATION_ROLE ( 'design_owner' ) ;
#112 = EDGE_CURVE ( 'NONE', #191, #293, #177, .T. ) ;
#113 = DIRECTION ( 'NONE',  ( 0.000000000000000000, 0.000000000000000000, 1.000000000000000000 ) ) ;
#114 = FACE_OUTER_BOUND ( 'NONE', #222, .T. ) ;
#115 = DIRECTION ( 'NONE',  ( 0.000000000000000000, 0.000000000000000000, 1.000000000000000000 ) ) ;
#116 = CARTESIAN_POINT ( 'NONE',  ( 0.000000000000000000, 0.000000000000000000, 103.0000000000000142 ) ) ;
#117 = CIRCLE ( 'NONE', #264, 5.000000000000000000 ) ;
#118 = ORIENTED_EDGE ( 'NONE', *, *, #64, .T. ) ;
#119 = ORIENTED_EDGE ( 'NONE', *, *, #179, .F. ) ;
#120 = ORIENTED_EDGE ( 'NONE', *, *, #1, .T. ) ;
#121 = ORIENTED_EDGE ( 'NONE', *, *, #214, .F. ) ;
#122 = VECTOR ( 'NONE', #182, 1000.000000000000000 ) ;
#123 = ORIENTED_EDGE ( 'NONE', *, *, #45, .T. ) ;
#124 = DIRECTION ( 'NONE',  ( 0.000000000000000000, -1.000000000000000000, 0.000000000000000000 ) ) ;
#125 = DATE_AND_TIME ( #279, #49 ) ;
#126 = EDGE_CURVE ( 'NONE', #28, #294, #138, .T. ) ;
#127 = CARTESIAN_POINT ( 'NONE',  ( -2.750000000000000000, 0.000000000000000000, 103.0000000000000142 ) ) ;
#128 =( NAMED_UNIT ( * ) PLANE_ANGLE_UNIT ( ) SI_UNIT ( $, .RADIAN. ) );
#129 = AXIS2_PLACEMENT_3D ( 'NONE', #3, #210, #160 ) ;
#130 = CARTESIAN_POINT ( 'NONE',  ( 2.949999999999999734, 0.000000000000000000, 2.999999999999997335 ) ) ;
#131 =( LENGTH_UNIT ( ) NAMED_UNIT ( * ) SI_UNIT ( .MILLI., .METRE. ) );
#132 = FACE_OUTER_BOUND ( 'NONE', #99, .T. ) ;
#133 = PERSON_AND_ORGANIZATION ( #26, #38 ) ;
#134 =( GEOMETRIC_REPRESENTATION_CONTEXT ( 3 ) GLOBAL_UNCERTAINTY_ASSIGNED_CONTEXT ( ( #140 ) ) GLOBAL_UNIT_ASSIGNED_CONTEXT ( ( #131, #128, #66 ) ) REPRESENTATION_CONTEXT ( 'NONE', 'WORKASPACE' ) );
#135 = DIRECTION ( 'NONE',  ( 1.000000000000000000, 0.000000000000000000, 0.000000000000000000 ) ) ;
#136 = CARTESIAN_POINT ( 'NONE',  ( 0.000000000000000000, 0.000000000000000000, 0.000000000000000000 ) ) ;
#137 = CARTESIAN_POINT ( 'NONE',  ( 0.000000000000000000, 0.000000000000000000, 3.000000000000000000 ) ) ;
#138 = CIRCLE ( 'NONE', #94, 2.750000000000000000 ) ;
#139 = CARTESIAN_POINT ( 'NONE',  ( 5.000000000000000000, 6.123233995736766282E-16, 3.000000000000000000 ) ) ;
#140 = UNCERTAINTY_MEASURE_WITH_UNIT (LENGTH_MEASURE( 1.000000000000000082E-05 ), #131, 'distance_accuracy_value', 'NONE');
#141 = PRODUCT_DEFINITION_SHAPE ( 'NONE', 'NONE',  #209 ) ;
#142 = EDGE_CURVE ( 'NONE', #169, #193, #102, .T. ) ;
#143 = ORIENTED_EDGE ( 'NONE', *, *, #277, .T. ) ;
#144 = AXIS2_PLACEMENT_3D ( 'NONE', #16, #172, #36 ) ;
#145 = EDGE_LOOP ( 'NONE', ( #196, #103, #244, #51 ) ) ;
#146 = APPROVAL_PERSON_ORGANIZATION ( #202, #50, #92 ) ;
#147 = ORIENTED_EDGE ( 'NONE', *, *, #303, .F. ) ;
#148 = VERTEX_POINT ( 'NONE', #130 ) ;
#149 = DIRECTION ( 'NONE',  ( -0.000000000000000000, -0.000000000000000000, -1.000000000000000000 ) ) ;
#150 = CARTESIAN_POINT ( 'NONE',  ( 2.949999999999999734, 0.000000000000000000, 3.199999999999994404 ) ) ;
#151 = CARTESIAN_POINT ( 'NONE',  ( 0.000000000000000000, 0.000000000000000000, 103.0000000000000142 ) ) ;
#152 = PERSON_AND_ORGANIZATION ( #26, #38 ) ;
#153 = DIRECTION ( 'NONE',  ( 0.000000000000000000, 0.000000000000000000, 1.000000000000000000 ) ) ;
#154 = CARTESIAN_POINT ( 'NONE',  ( -2.949999999999999734, 3.612708057484692097E-16, 3.199999999999994404 ) ) ;
#155 = APPLICATION_PROTOCOL_DEFINITION ( 'international standard', 'config_control_design', 1994, #280 ) ;
#156 = ADVANCED_FACE ( 'NONE', ( #281, #132 ), #231, .T. ) ;
#157 = APPLICATION_PROTOCOL_DEFINITION ( 'international standard', 'config_control_design', 1994, #30 ) ;
#158 = AXIS2_PLACEMENT_3D ( 'NONE', #154, #297, #87 ) ;
#159 = CARTESIAN_POINT ( 'NONE',  ( -5.000000000000000000, 0.000000000000000000, 3.000000000000000000 ) ) ;
#160 = DIRECTION ( 'NONE',  ( 1.000000000000000000, 0.000000000000000000, -0.000000000000000000 ) ) ;
#161 = LINE ( 'NONE', #72, #122 ) ;
#162 = VECTOR ( 'NONE', #301, 1000.000000000000000 ) ;
#163 = LOCAL_TIME ( 12, 16, 26.00000000000000000, #44 ) ;
#164 = ORIENTED_EDGE ( 'NONE', *, *, #230, .T. ) ;
#165 = ORIENTED_EDGE ( 'NONE', *, *, #64, .F. ) ;
#166 = EDGE_CURVE ( 'NONE', #294, #148, #70, .T. ) ;
#167 = ORIENTED_EDGE ( 'NONE', *, *, #126, .T. ) ;
#168 = CC_DESIGN_DATE_AND_TIME_ASSIGNMENT ( #40, #37, ( #209 ) ) ;
#169 = VERTEX_POINT ( 'NONE', #288 ) ;
#170 = EDGE_LOOP ( 'NONE', ( #296, #120, #143, #219 ) ) ;
#171 = AXIS2_PLACEMENT_3D ( 'NONE', #151, #199, #61 ) ;
#172 = DIRECTION ( 'NONE',  ( 0.000000000000000000, 0.000000000000000000, 1.000000000000000000 ) ) ;
#173 = APPROVAL_DATE_TIME ( #228, #50 ) ;
#174 = DIRECTION ( 'NONE',  ( -1.000000000000000000, 0.000000000000000000, 0.000000000000000000 ) ) ;
#175 = COORDINATED_UNIVERSAL_TIME_OFFSET ( 1, 0, .AHEAD. ) ;
#176 = DIRECTION ( 'NONE',  ( 1.000000000000000000, 0.000000000000000000, 0.000000000000000000 ) ) ;
#177 = CIRCLE ( 'NONE', #189, 5.000000000000000000 ) ;
#178 = SECURITY_CLASSIFICATION ( '', '', #42 ) ;
#179 = EDGE_CURVE ( 'NONE', #193, #169, #241, .T. ) ;
#180 = APPROVAL_ROLE ( '' ) ;
#181 = MECHANICAL_CONTEXT ( 'NONE', #30, 'mechanical' ) ;
#182 = DIRECTION ( 'NONE',  ( -0.000000000000000000, -0.000000000000000000, -1.000000000000000000 ) ) ;
#183 = ADVANCED_BREP_SHAPE_REPRESENTATION ( 'b9b0', ( #218, #21 ), #134 ) ;
#184 = CIRCLE ( 'NONE', #53, 2.949999999999999734 ) ;
#185 = CC_DESIGN_PERSON_AND_ORGANIZATION_ASSIGNMENT ( #108, #200, ( #242 ) ) ;
#186 = DIRECTION ( 'NONE',  ( -1.000000000000000000, 0.000000000000000000, 0.000000000000000000 ) ) ;
#187 = FACE_OUTER_BOUND ( 'NONE', #27, .T. ) ;
#188 = DIRECTION ( 'NONE',  ( 1.000000000000000000, 0.000000000000000000, 0.000000000000000000 ) ) ;
#189 = AXIS2_PLACEMENT_3D ( 'NONE', #109, #153, #15 ) ;
#190 = ADVANCED_FACE ( 'NONE', ( #114 ), #95, .F. ) ;
#191 = VERTEX_POINT ( 'NONE', #139 ) ;
#192 = AXIS2_PLACEMENT_3D ( 'NONE', #93, #22, #96 ) ;
#193 = VERTEX_POINT ( 'NONE', #239 ) ;
#194 = CC_DESIGN_APPROVAL ( #25, ( #242 ) ) ;
#195 = ORIENTED_EDGE ( 'NONE', *, *, #203, .F. ) ;
#196 = ORIENTED_EDGE ( 'NONE', *, *, #78, .F. ) ;
#197 = FACE_OUTER_BOUND ( 'NONE', #54, .T. ) ;
#198 = DIRECTION ( 'NONE',  ( 1.000000000000000000, 0.000000000000000000, 0.000000000000000000 ) ) ;
#199 = DIRECTION ( 'NONE',  ( -0.000000000000000000, -0.000000000000000000, -1.000000000000000000 ) ) ;
#200 = PERSON_AND_ORGANIZATION_ROLE ( 'creator' ) ;
#201 = CARTESIAN_POINT ( 'NONE',  ( -2.750000000000000000, 0.000000000000000000, 3.199999999999994404 ) ) ;
#202 = PERSON_AND_ORGANIZATION ( #26, #38 ) ;
#203 = EDGE_CURVE ( 'NONE', #148, #216, #107, .T. ) ;
#204 = DIRECTION ( 'NONE',  ( 0.000000000000000000, 0.000000000000000000, 1.000000000000000000 ) ) ;
#205 = COORDINATED_UNIVERSAL_TIME_OFFSET ( 1, 0, .AHEAD. ) ;
#206 = AXIS2_PLACEMENT_3D ( 'NONE', #89, #39, #176 ) ;
#207 = CC_DESIGN_APPROVAL ( #50, ( #209 ) ) ;
#208 = CARTESIAN_POINT ( 'NONE',  ( 0.000000000000000000, 0.000000000000000000, 0.000000000000000000 ) ) ;
#209 = PRODUCT_DEFINITION ( 'NEZNÁMÝ', '', #242, #56 ) ;
#210 = DIRECTION ( 'NONE',  ( 0.000000000000000000, 0.000000000000000000, 1.000000000000000000 ) ) ;
#211 = CARTESIAN_POINT ( 'NONE',  ( -2.949999999999999734, 3.612708057484692097E-16, 2.999999999999997335 ) ) ;
#212 = CC_DESIGN_PERSON_AND_ORGANIZATION_ASSIGNMENT ( #17, #256, ( #209 ) ) ;
#213 = FACE_OUTER_BOUND ( 'NONE', #268, .T. ) ;
#214 = EDGE_CURVE ( 'NONE', #191, #220, #161, .T. ) ;
#215 = AXIS2_PLACEMENT_3D ( 'NONE', #110, #204, #58 ) ;
#216 = VERTEX_POINT ( 'NONE', #211 ) ;
#217 = ORIENTED_EDGE ( 'NONE', *, *, #78, .T. ) ;
#218 = MANIFOLD_SOLID_BREP ( 'Zaoblit1', #80 ) ;
#219 = ORIENTED_EDGE ( 'NONE', *, *, #45, .F. ) ;
#220 = VERTEX_POINT ( 'NONE', #289 ) ;
#221 = LOCAL_TIME ( 12, 16, 26.00000000000000000, #284 ) ;
#222 = EDGE_LOOP ( 'NONE', ( #243, #147 ) ) ;
#223 = ADVANCED_FACE ( 'NONE', ( #306 ), #305, .T. ) ;
#224 = DIRECTION ( 'NONE',  ( 0.000000000000000000, 0.000000000000000000, -1.000000000000000000 ) ) ;
#225 = CALENDAR_DATE ( 2022, 7, 7 ) ;
#226 = DIRECTION ( 'NONE',  ( 1.000000000000000000, 0.000000000000000000, 0.000000000000000000 ) ) ;
#227 = CIRCLE ( 'NONE', #158, 0.2000000000000000944 ) ;
#228 = DATE_AND_TIME ( #254, #23 ) ;
#229 = CARTESIAN_POINT ( 'NONE',  ( 0.000000000000000000, 0.000000000000000000, 3.000000000000000000 ) ) ;
#230 = EDGE_CURVE ( 'NONE', #216, #148, #184, .T. ) ;
#231 = PLANE ( 'NONE',  #215 ) ;
#232 = APPROVAL_STATUS ( 'not_yet_approved' ) ;
#233 = DIRECTION ( 'NONE',  ( -0.000000000000000000, -0.000000000000000000, -1.000000000000000000 ) ) ;
#234 = CARTESIAN_POINT ( 'NONE',  ( 0.000000000000000000, 0.000000000000000000, 3.000000000000000000 ) ) ;
#235 = CARTESIAN_POINT ( 'NONE',  ( 0.000000000000000000, 0.000000000000000000, 3.000000000000000000 ) ) ;
#236 = PRODUCT ( 'b9b0', 'b9b0', '', ( #181 ) ) ;
#237 = APPROVAL_PERSON_ORGANIZATION ( #91, #25, #180 ) ;
#238 = AXIS2_PLACEMENT_3D ( 'NONE', #229, #299, #174 ) ;
#239 = CARTESIAN_POINT ( 'NONE',  ( -2.750000000000000000, 0.000000000000000000, 103.0000000000000142 ) ) ;
#240 = ORIENTED_EDGE ( 'NONE', *, *, #166, .F. ) ;
#241 = CIRCLE ( 'NONE', #259, 2.750000000000000000 ) ;
#242 = PRODUCT_DEFINITION_FORMATION_WITH_SPECIFIED_SOURCE ( 'LIBOVOLNÝ', '', #236, .NOT_KNOWN. ) ;
#243 = ORIENTED_EDGE ( 'NONE', *, *, #83, .F. ) ;
#244 = ORIENTED_EDGE ( 'NONE', *, *, #166, .T. ) ;
#245 = SHAPE_DEFINITION_REPRESENTATION ( #141, #183 ) ;
#246 = ORIENTED_EDGE ( 'NONE', *, *, #179, .T. ) ;
#247 = CC_DESIGN_PERSON_AND_ORGANIZATION_ASSIGNMENT ( #257, #300, ( #242 ) ) ;
#248 = TOROIDAL_SURFACE ( 'NONE', #84, 2.949999999999999734, 0.2000000000000000111 ) ;
#249 = FACE_OUTER_BOUND ( 'NONE', #292, .T. ) ;
#250 = DIRECTION ( 'NONE',  ( 1.000000000000000000, 0.000000000000000000, 0.000000000000000000 ) ) ;
#251 = CARTESIAN_POINT ( 'NONE',  ( -5.000000000000000000, 0.000000000000000000, 0.000000000000000000 ) ) ;
#252 = ADVANCED_FACE ( 'NONE', ( #24 ), #273, .F. ) ;
#253 = CARTESIAN_POINT ( 'NONE',  ( 0.000000000000000000, 0.000000000000000000, 3.199999999999994404 ) ) ;
#254 = CALENDAR_DATE ( 2022, 7, 7 ) ;
#255 = DIRECTION ( 'NONE',  ( 0.000000000000000000, 0.000000000000000000, 1.000000000000000000 ) ) ;
#256 = PERSON_AND_ORGANIZATION_ROLE ( 'creator' ) ;
#257 = PERSON_AND_ORGANIZATION ( #26, #38 ) ;
#258 = PERSON_AND_ORGANIZATION_ROLE ( 'classification_officer' ) ;
#259 = AXIS2_PLACEMENT_3D ( 'NONE', #48, #19, #188 ) ;
#260 = DIRECTION ( 'NONE',  ( 0.000000000000000000, 0.000000000000000000, 1.000000000000000000 ) ) ;
#261 = DIRECTION ( 'NONE',  ( 1.000000000000000000, 0.000000000000000000, -0.000000000000000000 ) ) ;
#262 = DIRECTION ( 'NONE',  ( -0.000000000000000000, -0.000000000000000000, -1.000000000000000000 ) ) ;
#263 = CC_DESIGN_PERSON_AND_ORGANIZATION_ASSIGNMENT ( #133, #258, ( #178 ) ) ;
#264 = AXIS2_PLACEMENT_3D ( 'NONE', #10, #35, #226 ) ;
#265 = CC_DESIGN_SECURITY_CLASSIFICATION ( #178, ( #242 ) ) ;
#266 = ORIENTED_EDGE ( 'NONE', *, *, #126, .F. ) ;
#267 = AXIS2_PLACEMENT_3D ( 'NONE', #71, #20, #135 ) ;
#268 = EDGE_LOOP ( 'NONE', ( #246, #9 ) ) ;
#269 = ORIENTED_EDGE ( 'NONE', *, *, #112, .T. ) ;
#270 = LINE ( 'NONE', #55, #43 ) ;
#271 = ADVANCED_FACE ( 'NONE', ( #213 ), #2, .T. ) ;
#272 = AXIS2_PLACEMENT_3D ( 'NONE', #150, #124, #224 ) ;
#273 = TOROIDAL_SURFACE ( 'NONE', #267, 2.949999999999999734, 0.2000000000000000111 ) ;
#274 = CARTESIAN_POINT ( 'NONE',  ( -5.000000000000000000, 0.000000000000000000, 3.000000000000000000 ) ) ;
#275 = LINE ( 'NONE', #127, #4 ) ;
#276 = APPROVAL_STATUS ( 'not_yet_approved' ) ;
#277 = EDGE_CURVE ( 'NONE', #294, #28, #307, .T. ) ;
#278 = FACE_OUTER_BOUND ( 'NONE', #145, .T. ) ;
#279 = CALENDAR_DATE ( 2022, 7, 7 ) ;
#280 = APPLICATION_CONTEXT ( 'configuration controlled 3d designs of mechanical parts and assemblies' ) ;
#281 = FACE_BOUND ( 'NONE', #81, .T. ) ;
#282 = AXIS2_PLACEMENT_3D ( 'NONE', #208, #260, #261 ) ;
#283 = APPROVAL_PERSON_ORGANIZATION ( #106, #100, #88 ) ;
#284 = COORDINATED_UNIVERSAL_TIME_OFFSET ( 1, 0, .AHEAD. ) ;
#285 = APPROVAL_DATE_TIME ( #67, #25 ) ;
#286 = DIRECTION ( 'NONE',  ( -1.000000000000000000, 0.000000000000000000, 0.000000000000000000 ) ) ;
#287 = DIRECTION ( 'NONE',  ( -0.000000000000000000, -0.000000000000000000, -1.000000000000000000 ) ) ;
#288 = CARTESIAN_POINT ( 'NONE',  ( 2.750000000000000000, 3.367778697655221012E-16, 103.0000000000000142 ) ) ;
#289 = CARTESIAN_POINT ( 'NONE',  ( 5.000000000000000000, 6.123233995736766282E-16, 0.000000000000000000 ) ) ;
#290 = ADVANCED_FACE ( 'NONE', ( #187 ), #97, .T. ) ;
#291 = ORIENTED_EDGE ( 'NONE', *, *, #203, .T. ) ;
#292 = EDGE_LOOP ( 'NONE', ( #79, #52, #82, #165 ) ) ;
#293 = VERTEX_POINT ( 'NONE', #159 ) ;
#294 = VERTEX_POINT ( 'NONE', #46 ) ;
#295 = CC_DESIGN_DATE_AND_TIME_ASSIGNMENT ( #86, #11, ( #178 ) ) ;
#296 = ORIENTED_EDGE ( 'NONE', *, *, #142, .F. ) ;
#297 = DIRECTION ( 'NONE',  ( 1.224646799147353207E-16, 1.000000000000000000, -0.000000000000000000 ) ) ;
#298 = APPROVAL_STATUS ( 'not_yet_approved' ) ;
#299 = DIRECTION ( 'NONE',  ( -0.000000000000000000, -0.000000000000000000, -1.000000000000000000 ) ) ;
#300 = PERSON_AND_ORGANIZATION_ROLE ( 'design_supplier' ) ;
#301 = DIRECTION ( 'NONE',  ( -0.000000000000000000, -0.000000000000000000, -1.000000000000000000 ) ) ;
#302 = CALENDAR_DATE ( 2022, 7, 7 ) ;
#303 = EDGE_CURVE ( 'NONE', #220, #101, #7, .T. ) ;
#304 = CARTESIAN_POINT ( 'NONE',  ( 0.000000000000000000, 0.000000000000000000, 0.000000000000000000 ) ) ;
#305 = CYLINDRICAL_SURFACE ( 'NONE', #76, 2.750000000000000000 ) ;
#306 = FACE_OUTER_BOUND ( 'NONE', #170, .T. ) ;
#307 = CIRCLE ( 'NONE', #192, 2.750000000000000000 ) ;
ENDSEC;
END-ISO-10303-21;
