ISO-10303-21;
HEADER;
FILE_DESCRIPTION (( 'STEP AP203' ),
    '1' );
FILE_NAME ('a051.STEP',
    '2023-02-12T11:02:43',
    ( '' ),
    ( '' ),
    'SwSTEP 2.0',
    'SolidWorks 2019',
    '' );
FILE_SCHEMA (( 'CONFIG_CONTROL_DESIGN' ));
ENDSEC;

DATA;
#1 = LOCAL_TIME ( 12, 2, 43.00000000000000000, #203 ) ;
#2 = DIRECTION ( 'NONE',  ( 1.000000000000000000, 0.000000000000000000, 0.000000000000000000 ) ) ;
#3 = DIRECTION ( 'NONE',  ( 0.000000000000000000, 0.000000000000000000, 1.000000000000000000 ) ) ;
#4 = DIRECTION ( 'NONE',  ( 1.000000000000000000, 0.000000000000000000, 0.000000000000000000 ) ) ;
#5 = AXIS2_PLACEMENT_3D ( 'NONE', #111, #24, #155 ) ;
#6 = PERSON_AND_ORGANIZATION_ROLE ( 'design_owner' ) ;
#7 = CC_DESIGN_PERSON_AND_ORGANIZATION_ASSIGNMENT ( #91, #25, ( #170 ) ) ;
#8 = CIRCLE ( 'NONE', #213, 6.099999999999999645 ) ;
#9 = CARTESIAN_POINT ( 'NONE',  ( 0.000000000000000000, 0.000000000000000000, 7.000000000000000000 ) ) ;
#10 = CC_DESIGN_APPROVAL ( #169, ( #207 ) ) ;
#11 = EDGE_LOOP ( 'NONE', ( #229, #152 ) ) ;
#12 = DIRECTION ( 'NONE',  ( 1.000000000000000000, 0.000000000000000000, 0.000000000000000000 ) ) ;
#13 = VERTEX_POINT ( 'NONE', #100 ) ;
#14 = PRODUCT_RELATED_PRODUCT_CATEGORY ( 'detail', '', ( #32 ) ) ;
#15 = VERTEX_POINT ( 'NONE', #51 ) ;
#16 = PLANE ( 'NONE',  #126 ) ;
#17 = ORIENTED_EDGE ( 'NONE', *, *, #160, .T. ) ;
#18 = ADVANCED_FACE ( 'NONE', ( #184 ), #200, .T. ) ;
#19 = CARTESIAN_POINT ( 'NONE',  ( 0.000000000000000000, 0.000000000000000000, 7.000000000000000000 ) ) ;
#20 = CALENDAR_DATE ( 2023, 12, 2 ) ;
#21 = CARTESIAN_POINT ( 'NONE',  ( -9.000000000000000000, 0.000000000000000000, 0.000000000000000000 ) ) ;
#22 = ORGANIZATION ( 'NEURÈENÝ', 'NEURÈENÝ', '' ) ;
#23 = PERSON_AND_ORGANIZATION_ROLE ( 'creator' ) ;
#24 = DIRECTION ( 'NONE',  ( -0.000000000000000000, -0.000000000000000000, -1.000000000000000000 ) ) ;
#25 = PERSON_AND_ORGANIZATION_ROLE ( 'design_supplier' ) ;
#26 = AXIS2_PLACEMENT_3D ( 'NONE', #109, #42, #177 ) ;
#27 = CARTESIAN_POINT ( 'NONE',  ( 0.000000000000000000, 0.000000000000000000, 0.000000000000000000 ) ) ;
#28 = CC_DESIGN_PERSON_AND_ORGANIZATION_ASSIGNMENT ( #70, #6, ( #32 ) ) ;
#29 = APPROVAL_PERSON_ORGANIZATION ( #251, #73, #60 ) ;
#30 = APPLICATION_CONTEXT ( 'configuration controlled 3d designs of mechanical parts and assemblies' ) ;
#31 = ORIENTED_EDGE ( 'NONE', *, *, #248, .F. ) ;
#32 = PRODUCT ( 'a051', 'a051', '', ( #238 ) ) ;
#33 = EDGE_CURVE ( 'NONE', #13, #227, #246, .T. ) ;
#34 = CARTESIAN_POINT ( 'NONE',  ( 0.000000000000000000, 0.000000000000000000, 400.0000000000000000 ) ) ;
#35 = AXIS2_PLACEMENT_3D ( 'NONE', #27, #96, #143 ) ;
#36 = APPLICATION_PROTOCOL_DEFINITION ( 'international standard', 'config_control_design', 1994, #30 ) ;
#37 = CALENDAR_DATE ( 2023, 12, 2 ) ;
#38 = DIRECTION ( 'NONE',  ( 1.000000000000000000, 0.000000000000000000, 0.000000000000000000 ) ) ;
#39 = CYLINDRICAL_SURFACE ( 'NONE', #5, 6.099999999999999645 ) ;
#40 = CC_DESIGN_APPROVAL ( #73, ( #170 ) ) ;
#41 = ORIENTED_EDGE ( 'NONE', *, *, #33, .F. ) ;
#42 = DIRECTION ( 'NONE',  ( -0.000000000000000000, -0.000000000000000000, -1.000000000000000000 ) ) ;
#43 = CC_DESIGN_PERSON_AND_ORGANIZATION_ASSIGNMENT ( #150, #44, ( #99 ) ) ;
#44 = PERSON_AND_ORGANIZATION_ROLE ( 'creator' ) ;
#45 = CARTESIAN_POINT ( 'NONE',  ( 9.000000000000000000, 1.102182119232617714E-15, 7.000000000000000000 ) ) ;
#46 = DATE_AND_TIME ( #20, #247 ) ;
#47 = CIRCLE ( 'NONE', #124, 6.099999999999999645 ) ;
#48 = UNCERTAINTY_MEASURE_WITH_UNIT (LENGTH_MEASURE( 1.000000000000000082E-05 ), #230, 'distance_accuracy_value', 'NONE');
#49 = DATE_AND_TIME ( #214, #140 ) ;
#50 = EDGE_CURVE ( 'NONE', #227, #13, #206, .T. ) ;
#51 = CARTESIAN_POINT ( 'NONE',  ( 9.000000000000000000, 1.102182119232617714E-15, 0.000000000000000000 ) ) ;
#52 = DESIGN_CONTEXT ( 'detailed design', #232, 'design' ) ;
#53 = CARTESIAN_POINT ( 'NONE',  ( 0.000000000000000000, 0.000000000000000000, 400.0000000000000000 ) ) ;
#54 = FACE_BOUND ( 'NONE', #153, .T. ) ;
#55 = CC_DESIGN_PERSON_AND_ORGANIZATION_ASSIGNMENT ( #94, #179, ( #207 ) ) ;
#56 = ORIENTED_EDGE ( 'NONE', *, *, #104, .F. ) ;
#57 = ORIENTED_EDGE ( 'NONE', *, *, #138, .F. ) ;
#58 = CIRCLE ( 'NONE', #79, 9.000000000000000000 ) ;
#59 = CARTESIAN_POINT ( 'NONE',  ( 0.000000000000000000, 0.000000000000000000, 7.000000000000000000 ) ) ;
#60 = APPROVAL_ROLE ( '' ) ;
#61 = APPROVAL_PERSON_ORGANIZATION ( #199, #169, #117 ) ;
#62 = CC_DESIGN_DATE_AND_TIME_ASSIGNMENT ( #46, #136, ( #99 ) ) ;
#63 = SECURITY_CLASSIFICATION_LEVEL ( 'unclassified' ) ;
#64 = DATE_AND_TIME ( #37, #1 ) ;
#65 = FACE_OUTER_BOUND ( 'NONE', #11, .T. ) ;
#66 = EDGE_CURVE ( 'NONE', #227, #135, #186, .T. ) ;
#67 = VECTOR ( 'NONE', #123, 1000.000000000000000 ) ;
#68 = APPROVAL ( #173, 'NEURÈENÝ' ) ;
#69 = APPROVAL_PERSON_ORGANIZATION ( #220, #68, #146 ) ;
#70 = PERSON_AND_ORGANIZATION ( #83, #22 ) ;
#71 = DIRECTION ( 'NONE',  ( -0.000000000000000000, -0.000000000000000000, -1.000000000000000000 ) ) ;
#72 = ORIENTED_EDGE ( 'NONE', *, *, #178, .T. ) ;
#73 = APPROVAL ( #197, 'NEURÈENÝ' ) ;
#74 = PERSON_AND_ORGANIZATION ( #83, #22 ) ;
#75 = DIRECTION ( 'NONE',  ( 1.000000000000000000, 0.000000000000000000, 0.000000000000000000 ) ) ;
#76 = FACE_OUTER_BOUND ( 'NONE', #205, .T. ) ;
#77 = DIRECTION ( 'NONE',  ( -0.000000000000000000, -0.000000000000000000, -1.000000000000000000 ) ) ;
#78 = ORIENTED_EDGE ( 'NONE', *, *, #33, .T. ) ;
#79 = AXIS2_PLACEMENT_3D ( 'NONE', #183, #162, #2 ) ;
#80 = DIRECTION ( 'NONE',  ( 1.000000000000000000, 0.000000000000000000, 0.000000000000000000 ) ) ;
#81 = LOCAL_TIME ( 12, 2, 43.00000000000000000, #157 ) ;
#82 = DIRECTION ( 'NONE',  ( 0.000000000000000000, 0.000000000000000000, 1.000000000000000000 ) ) ;
#83 = PERSON ( 'NEURÈENÝ', 'NEURÈENÝ', 'NEURÈENÝ', ('NEURÈENÝ'), ('NEURÈENÝ'), ('NEURÈENÝ') ) ;
#84 = AXIS2_PLACEMENT_3D ( 'NONE', #59, #77, #156 ) ;
#85 = EDGE_LOOP ( 'NONE', ( #41, #102, #72, #107 ) ) ;
#86 = DIRECTION ( 'NONE',  ( 1.000000000000000000, 0.000000000000000000, 0.000000000000000000 ) ) ;
#87 = ORIENTED_EDGE ( 'NONE', *, *, #138, .T. ) ;
#88 = ORIENTED_EDGE ( 'NONE', *, *, #216, .T. ) ;
#89 = ORIENTED_EDGE ( 'NONE', *, *, #222, .F. ) ;
#90 = EDGE_CURVE ( 'NONE', #165, #221, #97, .T. ) ;
#91 = PERSON_AND_ORGANIZATION ( #83, #22 ) ;
#92 = CARTESIAN_POINT ( 'NONE',  ( -6.099999999999999645, 0.000000000000000000, 7.000000000000000000 ) ) ;
#93 = COORDINATED_UNIVERSAL_TIME_OFFSET ( 1, 0, .AHEAD. ) ;
#94 = PERSON_AND_ORGANIZATION ( #83, #22 ) ;
#95 = ORIENTED_EDGE ( 'NONE', *, *, #234, .T. ) ;
#96 = DIRECTION ( 'NONE',  ( 0.000000000000000000, 0.000000000000000000, 1.000000000000000000 ) ) ;
#97 = CIRCLE ( 'NONE', #237, 9.000000000000000000 ) ;
#98 = AXIS2_PLACEMENT_3D ( 'NONE', #129, #174, #149 ) ;
#99 = PRODUCT_DEFINITION ( 'NEZNÁMÝ', '', #170, #52 ) ;
#100 = CARTESIAN_POINT ( 'NONE',  ( 6.099999999999999645, 7.470345474798854293E-16, 400.0000000000000000 ) ) ;
#101 = DIRECTION ( 'NONE',  ( 1.000000000000000000, 0.000000000000000000, 0.000000000000000000 ) ) ;
#102 = ORIENTED_EDGE ( 'NONE', *, *, #104, .T. ) ;
#103 = DIRECTION ( 'NONE',  ( 0.000000000000000000, 0.000000000000000000, 1.000000000000000000 ) ) ;
#104 = EDGE_CURVE ( 'NONE', #13, #188, #145, .T. ) ;
#105 = ORIENTED_EDGE ( 'NONE', *, *, #178, .F. ) ;
#106 = CLOSED_SHELL ( 'NONE', ( #130, #147, #253, #122, #240, #195, #18 ) ) ;
#107 = ORIENTED_EDGE ( 'NONE', *, *, #66, .F. ) ;
#108 = FACE_OUTER_BOUND ( 'NONE', #85, .T. ) ;
#109 = CARTESIAN_POINT ( 'NONE',  ( 0.000000000000000000, 0.000000000000000000, 400.0000000000000000 ) ) ;
#110 = VECTOR ( 'NONE', #71, 1000.000000000000000 ) ;
#111 = CARTESIAN_POINT ( 'NONE',  ( 0.000000000000000000, 0.000000000000000000, 400.0000000000000000 ) ) ;
#112 = CYLINDRICAL_SURFACE ( 'NONE', #26, 6.099999999999999645 ) ;
#113 = DIRECTION ( 'NONE',  ( 0.000000000000000000, 0.000000000000000000, 1.000000000000000000 ) ) ;
#114 = DIRECTION ( 'NONE',  ( 0.000000000000000000, 0.000000000000000000, 1.000000000000000000 ) ) ;
#115 = CARTESIAN_POINT ( 'NONE',  ( 0.000000000000000000, 0.000000000000000000, 0.000000000000000000 ) ) ;
#116 = CARTESIAN_POINT ( 'NONE',  ( 0.000000000000000000, 0.000000000000000000, 0.000000000000000000 ) ) ;
#117 = APPROVAL_ROLE ( '' ) ;
#118 = ORIENTED_EDGE ( 'NONE', *, *, #160, .F. ) ;
#119 = AXIS2_PLACEMENT_3D ( 'NONE', #116, #218, #101 ) ;
#120 = ORIENTED_EDGE ( 'NONE', *, *, #66, .T. ) ;
#121 = ORIENTED_EDGE ( 'NONE', *, *, #222, .T. ) ;
#122 = ADVANCED_FACE ( 'NONE', ( #54, #190 ), #16, .T. ) ;
#123 = DIRECTION ( 'NONE',  ( -0.000000000000000000, -0.000000000000000000, -1.000000000000000000 ) ) ;
#124 = AXIS2_PLACEMENT_3D ( 'NONE', #19, #113, #38 ) ;
#125 = MANIFOLD_SOLID_BREP ( 'Pøidat vysunutím3', #106 ) ;
#126 = AXIS2_PLACEMENT_3D ( 'NONE', #148, #127, #208 ) ;
#127 = DIRECTION ( 'NONE',  ( 0.000000000000000000, 0.000000000000000000, 1.000000000000000000 ) ) ;
#128 = AXIS2_PLACEMENT_3D ( 'NONE', #212, #114, #4 ) ;
#129 = CARTESIAN_POINT ( 'NONE',  ( 0.000000000000000000, 0.000000000000000000, 7.000000000000000000 ) ) ;
#130 = ADVANCED_FACE ( 'NONE', ( #108 ), #112, .T. ) ;
#131 = DIRECTION ( 'NONE',  ( -0.000000000000000000, -0.000000000000000000, -1.000000000000000000 ) ) ;
#132 = FACE_OUTER_BOUND ( 'NONE', #244, .T. ) ;
#133 =( NAMED_UNIT ( * ) PLANE_ANGLE_UNIT ( ) SI_UNIT ( $, .RADIAN. ) );
#134 = APPROVAL_STATUS ( 'not_yet_approved' ) ;
#135 = VERTEX_POINT ( 'NONE', #92 ) ;
#136 = DATE_TIME_ROLE ( 'creation_date' ) ;
#137 = COORDINATED_UNIVERSAL_TIME_OFFSET ( 1, 0, .AHEAD. ) ;
#138 = EDGE_CURVE ( 'NONE', #135, #188, #47, .T. ) ;
#139 = AXIS2_PLACEMENT_3D ( 'NONE', #53, #3, #12 ) ;
#140 = LOCAL_TIME ( 12, 2, 43.00000000000000000, #137 ) ;
#141 = CC_DESIGN_DATE_AND_TIME_ASSIGNMENT ( #49, #159, ( #207 ) ) ;
#142 = APPLICATION_PROTOCOL_DEFINITION ( 'international standard', 'config_control_design', 1994, #232 ) ;
#143 = DIRECTION ( 'NONE',  ( 1.000000000000000000, 0.000000000000000000, -0.000000000000000000 ) ) ;
#144 = DIRECTION ( 'NONE',  ( 0.000000000000000000, 0.000000000000000000, 1.000000000000000000 ) ) ;
#145 = LINE ( 'NONE', #171, #67 ) ;
#146 = APPROVAL_ROLE ( '' ) ;
#147 = ADVANCED_FACE ( 'NONE', ( #255 ), #154, .T. ) ;
#148 = CARTESIAN_POINT ( 'NONE',  ( 0.000000000000000000, 0.000000000000000000, 7.000000000000000000 ) ) ;
#149 = DIRECTION ( 'NONE',  ( -1.000000000000000000, 0.000000000000000000, 0.000000000000000000 ) ) ;
#150 = PERSON_AND_ORGANIZATION ( #83, #22 ) ;
#151 = VECTOR ( 'NONE', #131, 1000.000000000000000 ) ;
#152 = ORIENTED_EDGE ( 'NONE', *, *, #234, .F. ) ;
#153 = EDGE_LOOP ( 'NONE', ( #57, #105 ) ) ;
#154 = CYLINDRICAL_SURFACE ( 'NONE', #84, 9.000000000000000000 ) ;
#155 = DIRECTION ( 'NONE',  ( -1.000000000000000000, 0.000000000000000000, 0.000000000000000000 ) ) ;
#156 = DIRECTION ( 'NONE',  ( -1.000000000000000000, 0.000000000000000000, 0.000000000000000000 ) ) ;
#157 = COORDINATED_UNIVERSAL_TIME_OFFSET ( 1, 0, .AHEAD. ) ;
#158 = LINE ( 'NONE', #45, #198 ) ;
#159 = DATE_TIME_ROLE ( 'classification_date' ) ;
#160 = EDGE_CURVE ( 'NONE', #165, #15, #158, .T. ) ;
#161 = CIRCLE ( 'NONE', #219, 9.000000000000000000 ) ;
#162 = DIRECTION ( 'NONE',  ( 0.000000000000000000, 0.000000000000000000, 1.000000000000000000 ) ) ;
#163 = CARTESIAN_POINT ( 'NONE',  ( -6.099999999999999645, 0.000000000000000000, 400.0000000000000000 ) ) ;
#164 = COORDINATED_UNIVERSAL_TIME_OFFSET ( 1, 0, .AHEAD. ) ;
#165 = VERTEX_POINT ( 'NONE', #191 ) ;
#166 = DIRECTION ( 'NONE',  ( 1.000000000000000000, 0.000000000000000000, 0.000000000000000000 ) ) ;
#167 = VERTEX_POINT ( 'NONE', #21 ) ;
#168 = LINE ( 'NONE', #254, #151 ) ;
#169 = APPROVAL ( #134, 'NEURÈENÝ' ) ;
#170 = PRODUCT_DEFINITION_FORMATION_WITH_SPECIFIED_SOURCE ( 'LIBOVOLNÝ', '', #32, .NOT_KNOWN. ) ;
#171 = CARTESIAN_POINT ( 'NONE',  ( 6.099999999999999645, 7.470345474798854293E-16, 400.0000000000000000 ) ) ;
#172 = CARTESIAN_POINT ( 'NONE',  ( -6.099999999999999645, 0.000000000000000000, 400.0000000000000000 ) ) ;
#173 = APPROVAL_STATUS ( 'not_yet_approved' ) ;
#174 = DIRECTION ( 'NONE',  ( -0.000000000000000000, -0.000000000000000000, -1.000000000000000000 ) ) ;
#175 = DATE_AND_TIME ( #211, #81 ) ;
#176 = CARTESIAN_POINT ( 'NONE',  ( 0.000000000000000000, 0.000000000000000000, 7.000000000000000000 ) ) ;
#177 = DIRECTION ( 'NONE',  ( -1.000000000000000000, 0.000000000000000000, 0.000000000000000000 ) ) ;
#178 = EDGE_CURVE ( 'NONE', #188, #135, #8, .T. ) ;
#179 = PERSON_AND_ORGANIZATION_ROLE ( 'classification_officer' ) ;
#180 =( GEOMETRIC_REPRESENTATION_CONTEXT ( 3 ) GLOBAL_UNCERTAINTY_ASSIGNED_CONTEXT ( ( #48 ) ) GLOBAL_UNIT_ASSIGNED_CONTEXT ( ( #230, #133, #193 ) ) REPRESENTATION_CONTEXT ( 'NONE', 'WORKASPACE' ) );
#181 = CARTESIAN_POINT ( 'NONE',  ( 0.000000000000000000, 0.000000000000000000, 400.0000000000000000 ) ) ;
#182 = CALENDAR_DATE ( 2023, 12, 2 ) ;
#183 = CARTESIAN_POINT ( 'NONE',  ( 0.000000000000000000, 0.000000000000000000, 7.000000000000000000 ) ) ;
#184 = FACE_OUTER_BOUND ( 'NONE', #235, .T. ) ;
#185 = ORIENTED_EDGE ( 'NONE', *, *, #50, .F. ) ;
#186 = LINE ( 'NONE', #172, #110 ) ;
#187 = EDGE_LOOP ( 'NONE', ( #121, #225 ) ) ;
#188 = VERTEX_POINT ( 'NONE', #231 ) ;
#189 = CIRCLE ( 'NONE', #128, 9.000000000000000000 ) ;
#190 = FACE_OUTER_BOUND ( 'NONE', #187, .T. ) ;
#191 = CARTESIAN_POINT ( 'NONE',  ( 9.000000000000000000, 1.102182119232617714E-15, 7.000000000000000000 ) ) ;
#192 = AXIS2_PLACEMENT_3D ( 'NONE', #34, #103, #166 ) ;
#193 =( NAMED_UNIT ( * ) SI_UNIT ( $, .STERADIAN. ) SOLID_ANGLE_UNIT ( ) );
#194 = CC_DESIGN_APPROVAL ( #68, ( #99 ) ) ;
#195 = ADVANCED_FACE ( 'NONE', ( #132 ), #39, .T. ) ;
#196 = APPROVAL_DATE_TIME ( #64, #68 ) ;
#197 = APPROVAL_STATUS ( 'not_yet_approved' ) ;
#198 = VECTOR ( 'NONE', #209, 1000.000000000000000 ) ;
#199 = PERSON_AND_ORGANIZATION ( #83, #22 ) ;
#200 = PLANE ( 'NONE',  #252 ) ;
#201 = CC_DESIGN_SECURITY_CLASSIFICATION ( #207, ( #170 ) ) ;
#202 = CARTESIAN_POINT ( 'NONE',  ( -9.000000000000000000, 0.000000000000000000, 7.000000000000000000 ) ) ;
#203 = COORDINATED_UNIVERSAL_TIME_OFFSET ( 1, 0, .AHEAD. ) ;
#204 = ORIENTED_EDGE ( 'NONE', *, *, #248, .T. ) ;
#205 = EDGE_LOOP ( 'NONE', ( #118, #89, #204, #88 ) ) ;
#206 = CIRCLE ( 'NONE', #192, 6.099999999999999645 ) ;
#207 = SECURITY_CLASSIFICATION ( '', '', #63 ) ;
#208 = DIRECTION ( 'NONE',  ( 1.000000000000000000, 0.000000000000000000, -0.000000000000000000 ) ) ;
#209 = DIRECTION ( 'NONE',  ( -0.000000000000000000, -0.000000000000000000, -1.000000000000000000 ) ) ;
#210 = CC_DESIGN_PERSON_AND_ORGANIZATION_ASSIGNMENT ( #74, #23, ( #170 ) ) ;
#211 = CALENDAR_DATE ( 2023, 12, 2 ) ;
#212 = CARTESIAN_POINT ( 'NONE',  ( 0.000000000000000000, 0.000000000000000000, 0.000000000000000000 ) ) ;
#213 = AXIS2_PLACEMENT_3D ( 'NONE', #176, #250, #75 ) ;
#214 = CALENDAR_DATE ( 2023, 12, 2 ) ;
#215 = PLANE ( 'NONE',  #35 ) ;
#216 = EDGE_CURVE ( 'NONE', #167, #15, #189, .T. ) ;
#217 = DIRECTION ( 'NONE',  ( 0.000000000000000000, 0.000000000000000000, 1.000000000000000000 ) ) ;
#218 = DIRECTION ( 'NONE',  ( 0.000000000000000000, 0.000000000000000000, 1.000000000000000000 ) ) ;
#219 = AXIS2_PLACEMENT_3D ( 'NONE', #115, #217, #80 ) ;
#220 = PERSON_AND_ORGANIZATION ( #83, #22 ) ;
#221 = VERTEX_POINT ( 'NONE', #202 ) ;
#222 = EDGE_CURVE ( 'NONE', #221, #165, #58, .T. ) ;
#223 = ORIENTED_EDGE ( 'NONE', *, *, #50, .T. ) ;
#224 = DATE_AND_TIME ( #182, #226 ) ;
#225 = ORIENTED_EDGE ( 'NONE', *, *, #90, .T. ) ;
#226 = LOCAL_TIME ( 12, 2, 43.00000000000000000, #164 ) ;
#227 = VERTEX_POINT ( 'NONE', #163 ) ;
#228 = EDGE_LOOP ( 'NONE', ( #245, #17, #95, #31 ) ) ;
#229 = ORIENTED_EDGE ( 'NONE', *, *, #216, .F. ) ;
#230 =( LENGTH_UNIT ( ) NAMED_UNIT ( * ) SI_UNIT ( .MILLI., .METRE. ) );
#231 = CARTESIAN_POINT ( 'NONE',  ( 6.099999999999999645, 7.470345474798854293E-16, 7.000000000000000000 ) ) ;
#232 = APPLICATION_CONTEXT ( 'configuration controlled 3d designs of mechanical parts and assemblies' ) ;
#233 = CYLINDRICAL_SURFACE ( 'NONE', #98, 9.000000000000000000 ) ;
#234 = EDGE_CURVE ( 'NONE', #15, #167, #161, .T. ) ;
#235 = EDGE_LOOP ( 'NONE', ( #223, #78 ) ) ;
#236 = DIRECTION ( 'NONE',  ( 1.000000000000000000, 0.000000000000000000, -0.000000000000000000 ) ) ;
#237 = AXIS2_PLACEMENT_3D ( 'NONE', #9, #144, #86 ) ;
#238 = MECHANICAL_CONTEXT ( 'NONE', #30, 'mechanical' ) ;
#239 = SHAPE_DEFINITION_REPRESENTATION ( #241, #243 ) ;
#240 = ADVANCED_FACE ( 'NONE', ( #65 ), #215, .F. ) ;
#241 = PRODUCT_DEFINITION_SHAPE ( 'NONE', 'NONE',  #99 ) ;
#242 = APPROVAL_DATE_TIME ( #224, #169 ) ;
#243 = ADVANCED_BREP_SHAPE_REPRESENTATION ( 'a051', ( #125, #119 ), #180 ) ;
#244 = EDGE_LOOP ( 'NONE', ( #56, #185, #120, #87 ) ) ;
#245 = ORIENTED_EDGE ( 'NONE', *, *, #90, .F. ) ;
#246 = CIRCLE ( 'NONE', #139, 6.099999999999999645 ) ;
#247 = LOCAL_TIME ( 12, 2, 43.00000000000000000, #93 ) ;
#248 = EDGE_CURVE ( 'NONE', #221, #167, #168, .T. ) ;
#249 = APPROVAL_DATE_TIME ( #175, #73 ) ;
#250 = DIRECTION ( 'NONE',  ( 0.000000000000000000, 0.000000000000000000, 1.000000000000000000 ) ) ;
#251 = PERSON_AND_ORGANIZATION ( #83, #22 ) ;
#252 = AXIS2_PLACEMENT_3D ( 'NONE', #181, #82, #236 ) ;
#253 = ADVANCED_FACE ( 'NONE', ( #76 ), #233, .T. ) ;
#254 = CARTESIAN_POINT ( 'NONE',  ( -9.000000000000000000, 0.000000000000000000, 7.000000000000000000 ) ) ;
#255 = FACE_OUTER_BOUND ( 'NONE', #228, .T. ) ;
ENDSEC;
END-ISO-10303-21;
