ISO-10303-21;
HEADER;
FILE_DESCRIPTION (( 'STEP AP203' ),
    '1' );
FILE_NAME ('273d.STEP',
    '2022-07-07T10:11:04',
    ( '' ),
    ( '' ),
    'SwSTEP 2.0',
    'SolidWorks 2019',
    '' );
FILE_SCHEMA (( 'CONFIG_CONTROL_DESIGN' ));
ENDSEC;

DATA;
#1 = PLANE ( 'NONE',  #70 ) ;
#2 = APPLICATION_CONTEXT ( 'configuration controlled 3d designs of mechanical parts and assemblies' ) ;
#3 = VECTOR ( 'NONE', #262, 1000.000000000000000 ) ;
#4 = DIRECTION ( 'NONE',  ( 1.000000000000000000, 0.000000000000000000, 0.000000000000000000 ) ) ;
#5 = CARTESIAN_POINT ( 'NONE',  ( -3.299999999999999822, 4.041334437186265510E-16, 5.199999999999982414 ) ) ;
#6 = DIRECTION ( 'NONE',  ( 0.000000000000000000, 0.000000000000000000, 1.000000000000000000 ) ) ;
#7 = ADVANCED_BREP_SHAPE_REPRESENTATION ( '273d', ( #245, #51 ), #105 ) ;
#8 = CARTESIAN_POINT ( 'NONE',  ( 0.000000000000000000, 0.000000000000000000, 0.000000000000000000 ) ) ;
#9 = VECTOR ( 'NONE', #226, 1000.000000000000000 ) ;
#10 = DIRECTION ( 'NONE',  ( 0.000000000000000000, 0.000000000000000000, 1.000000000000000000 ) ) ;
#11 = APPLICATION_PROTOCOL_DEFINITION ( 'international standard', 'config_control_design', 1994, #174 ) ;
#12 = APPROVAL_STATUS ( 'not_yet_approved' ) ;
#13 = PERSON_AND_ORGANIZATION ( #250, #263 ) ;
#14 = ORIENTED_EDGE ( 'NONE', *, *, #223, .T. ) ;
#15 = VERTEX_POINT ( 'NONE', #284 ) ;
#16 = ADVANCED_FACE ( 'NONE', ( #266 ), #144, .T. ) ;
#17 = CC_DESIGN_APPROVAL ( #37, ( #166 ) ) ;
#18 = ORIENTED_EDGE ( 'NONE', *, *, #196, .F. ) ;
#19 = APPROVAL ( #12, 'NEURÈENÝ' ) ;
#20 = AXIS2_PLACEMENT_3D ( 'NONE', #222, #98, #273 ) ;
#21 = CARTESIAN_POINT ( 'NONE',  ( 0.000000000000000000, 0.000000000000000000, 5.000000000000000000 ) ) ;
#22 = APPROVAL_DATE_TIME ( #237, #111 ) ;
#23 = DIRECTION ( 'NONE',  ( 1.000000000000000000, 0.000000000000000000, 0.000000000000000000 ) ) ;
#24 = EDGE_LOOP ( 'NONE', ( #191, #119, #289, #39 ) ) ;
#25 = CARTESIAN_POINT ( 'NONE',  ( 0.000000000000000000, 0.000000000000000000, 0.000000000000000000 ) ) ;
#26 = AXIS2_PLACEMENT_3D ( 'NONE', #21, #120, #218 ) ;
#27 = CARTESIAN_POINT ( 'NONE',  ( 3.100000000000000089, 3.796405077356794918E-16, 5.199999999999982414 ) ) ;
#28 = TOROIDAL_SURFACE ( 'NONE', #210, 3.299999999999999822, 0.2000000000000000111 ) ;
#29 = AXIS2_PLACEMENT_3D ( 'NONE', #106, #10, #201 ) ;
#30 = DIRECTION ( 'NONE',  ( 0.000000000000000000, 0.000000000000000000, -1.000000000000000000 ) ) ;
#31 = DIRECTION ( 'NONE',  ( -0.000000000000000000, -0.000000000000000000, -1.000000000000000000 ) ) ;
#32 = DIRECTION ( 'NONE',  ( 1.000000000000000000, 0.000000000000000000, 0.000000000000000000 ) ) ;
#33 = ADVANCED_FACE ( 'NONE', ( #197 ), #286, .T. ) ;
#34 = FACE_OUTER_BOUND ( 'NONE', #171, .T. ) ;
#35 = EDGE_CURVE ( 'NONE', #15, #138, #156, .T. ) ;
#36 = ORIENTED_EDGE ( 'NONE', *, *, #57, .F. ) ;
#37 = APPROVAL ( #63, 'NEURÈENÝ' ) ;
#38 = PERSON_AND_ORGANIZATION_ROLE ( 'classification_officer' ) ;
#39 = ORIENTED_EDGE ( 'NONE', *, *, #272, .F. ) ;
#40 = PERSON_AND_ORGANIZATION ( #250, #263 ) ;
#41 = AXIS2_PLACEMENT_3D ( 'NONE', #94, #199, #75 ) ;
#42 = ORIENTED_EDGE ( 'NONE', *, *, #108, .F. ) ;
#43 = ADVANCED_FACE ( 'NONE', ( #47 ), #149, .F. ) ;
#44 = ORIENTED_EDGE ( 'NONE', *, *, #55, .F. ) ;
#45 = VECTOR ( 'NONE', #270, 1000.000000000000000 ) ;
#46 = LOCAL_TIME ( 12, 11, 4.000000000000000000, #236 ) ;
#47 = FACE_OUTER_BOUND ( 'NONE', #200, .T. ) ;
#48 = EDGE_CURVE ( 'NONE', #172, #136, #170, .T. ) ;
#49 = ORIENTED_EDGE ( 'NONE', *, *, #248, .F. ) ;
#50 = DIRECTION ( 'NONE',  ( 0.000000000000000000, 0.000000000000000000, 1.000000000000000000 ) ) ;
#51 = AXIS2_PLACEMENT_3D ( 'NONE', #134, #209, #107 ) ;
#52 = DIRECTION ( 'NONE',  ( -0.000000000000000000, -0.000000000000000000, -1.000000000000000000 ) ) ;
#53 = DIRECTION ( 'NONE',  ( 0.000000000000000000, 0.000000000000000000, 1.000000000000000000 ) ) ;
#54 = CARTESIAN_POINT ( 'NONE',  ( 0.000000000000000000, 0.000000000000000000, 5.199999999999982414 ) ) ;
#55 = EDGE_CURVE ( 'NONE', #141, #300, #103, .T. ) ;
#56 = DIRECTION ( 'NONE',  ( 0.000000000000000000, 0.000000000000000000, 1.000000000000000000 ) ) ;
#57 = EDGE_CURVE ( 'NONE', #86, #126, #182, .T. ) ;
#58 = DIRECTION ( 'NONE',  ( 1.000000000000000000, 0.000000000000000000, 0.000000000000000000 ) ) ;
#59 = AXIS2_PLACEMENT_3D ( 'NONE', #265, #240, #23 ) ;
#60 = DIRECTION ( 'NONE',  ( 0.000000000000000000, -1.000000000000000000, 0.000000000000000000 ) ) ;
#61 = LOCAL_TIME ( 12, 11, 4.000000000000000000, #116 ) ;
#62 = LOCAL_TIME ( 12, 11, 4.000000000000000000, #140 ) ;
#63 = APPROVAL_STATUS ( 'not_yet_approved' ) ;
#64 = EDGE_LOOP ( 'NONE', ( #42, #14, #304, #49 ) ) ;
#65 = CALENDAR_DATE ( 2022, 7, 7 ) ;
#66 = AXIS2_PLACEMENT_3D ( 'NONE', #97, #252, #127 ) ;
#67 = ORIENTED_EDGE ( 'NONE', *, *, #178, .T. ) ;
#68 = APPLICATION_PROTOCOL_DEFINITION ( 'international standard', 'config_control_design', 1994, #2 ) ;
#69 = CIRCLE ( 'NONE', #85, 0.1999999999999996503 ) ;
#70 = AXIS2_PLACEMENT_3D ( 'NONE', #148, #244, #124 ) ;
#71 = DIRECTION ( 'NONE',  ( -1.000000000000000000, 0.000000000000000000, 0.000000000000000000 ) ) ;
#72 = CIRCLE ( 'NONE', #179, 3.299999999999999822 ) ;
#73 = DIRECTION ( 'NONE',  ( -0.000000000000000000, -0.000000000000000000, -1.000000000000000000 ) ) ;
#74 = SECURITY_CLASSIFICATION ( '', '', #87 ) ;
#75 = DIRECTION ( 'NONE',  ( 1.000000000000000000, 0.000000000000000000, 0.000000000000000000 ) ) ;
#76 = ORIENTED_EDGE ( 'NONE', *, *, #278, .F. ) ;
#77 = ORIENTED_EDGE ( 'NONE', *, *, #223, .F. ) ;
#78 = CIRCLE ( 'NONE', #139, 0.2000000000000000944 ) ;
#79 = CARTESIAN_POINT ( 'NONE',  ( 3.299999999999999822, 0.000000000000000000, 5.199999999999982414 ) ) ;
#80 = CARTESIAN_POINT ( 'NONE',  ( -6.000000000000000888, 0.000000000000000000, 0.000000000000000000 ) ) ;
#81 = CIRCLE ( 'NONE', #41, 3.100000000000000089 ) ;
#82 = FACE_OUTER_BOUND ( 'NONE', #261, .T. ) ;
#83 = CARTESIAN_POINT ( 'NONE',  ( 0.000000000000000000, 0.000000000000000000, 5.000000000000000000 ) ) ;
#84 = CARTESIAN_POINT ( 'NONE',  ( -6.000000000000000888, 0.000000000000000000, 5.000000000000000000 ) ) ;
#85 = AXIS2_PLACEMENT_3D ( 'NONE', #79, #60, #30 ) ;
#86 = VERTEX_POINT ( 'NONE', #306 ) ;
#87 = SECURITY_CLASSIFICATION_LEVEL ( 'unclassified' ) ;
#88 = EDGE_CURVE ( 'NONE', #172, #188, #81, .T. ) ;
#89 = APPROVAL_STATUS ( 'not_yet_approved' ) ;
#90 = ORIENTED_EDGE ( 'NONE', *, *, #285, .T. ) ;
#91 = ORIENTED_EDGE ( 'NONE', *, *, #35, .F. ) ;
#92 = ORIENTED_EDGE ( 'NONE', *, *, #48, .T. ) ;
#93 = CC_DESIGN_PERSON_AND_ORGANIZATION_ASSIGNMENT ( #208, #168, ( #151 ) ) ;
#94 = CARTESIAN_POINT ( 'NONE',  ( 0.000000000000000000, 0.000000000000000000, 320.0000000000000000 ) ) ;
#95 = ORIENTED_EDGE ( 'NONE', *, *, #48, .F. ) ;
#96 = CLOSED_SHELL ( 'NONE', ( #101, #33, #169, #287, #99, #43, #16, #129, #153 ) ) ;
#97 = CARTESIAN_POINT ( 'NONE',  ( 0.000000000000000000, 0.000000000000000000, 5.000000000000000000 ) ) ;
#98 = DIRECTION ( 'NONE',  ( 0.000000000000000000, 0.000000000000000000, 1.000000000000000000 ) ) ;
#99 = ADVANCED_FACE ( 'NONE', ( #146, #220 ), #1, .T. ) ;
#100 = DIRECTION ( 'NONE',  ( 0.000000000000000000, 0.000000000000000000, 1.000000000000000000 ) ) ;
#101 = ADVANCED_FACE ( 'NONE', ( #221 ), #165, .F. ) ;
#102 = DIRECTION ( 'NONE',  ( 1.000000000000000000, 0.000000000000000000, 0.000000000000000000 ) ) ;
#103 = CIRCLE ( 'NONE', #217, 6.000000000000000888 ) ;
#104 = LINE ( 'NONE', #130, #9 ) ;
#105 =( GEOMETRIC_REPRESENTATION_CONTEXT ( 3 ) GLOBAL_UNCERTAINTY_ASSIGNED_CONTEXT ( ( #227 ) ) GLOBAL_UNIT_ASSIGNED_CONTEXT ( ( #282, #214, #276 ) ) REPRESENTATION_CONTEXT ( 'NONE', 'WORKASPACE' ) );
#106 = CARTESIAN_POINT ( 'NONE',  ( 0.000000000000000000, 0.000000000000000000, 320.0000000000000000 ) ) ;
#107 = DIRECTION ( 'NONE',  ( 1.000000000000000000, 0.000000000000000000, 0.000000000000000000 ) ) ;
#108 = EDGE_CURVE ( 'NONE', #300, #141, #203, .T. ) ;
#109 = COORDINATED_UNIVERSAL_TIME_OFFSET ( 1, 0, .AHEAD. ) ;
#110 = ORIENTED_EDGE ( 'NONE', *, *, #57, .T. ) ;
#111 = APPROVAL ( #89, 'NEURÈENÝ' ) ;
#112 = APPROVAL_ROLE ( '' ) ;
#113 = ORIENTED_EDGE ( 'NONE', *, *, #186, .T. ) ;
#114 = PERSON_AND_ORGANIZATION ( #250, #263 ) ;
#115 = AXIS2_PLACEMENT_3D ( 'NONE', #198, #52, #173 ) ;
#116 = COORDINATED_UNIVERSAL_TIME_OFFSET ( 1, 0, .AHEAD. ) ;
#117 = ORIENTED_EDGE ( 'NONE', *, *, #285, .F. ) ;
#118 = AXIS2_PLACEMENT_3D ( 'NONE', #177, #296, #150 ) ;
#119 = ORIENTED_EDGE ( 'NONE', *, *, #157, .T. ) ;
#120 = DIRECTION ( 'NONE',  ( -0.000000000000000000, -0.000000000000000000, -1.000000000000000000 ) ) ;
#121 = CIRCLE ( 'NONE', #295, 3.100000000000000089 ) ;
#122 = DIRECTION ( 'NONE',  ( 1.000000000000000000, 0.000000000000000000, 0.000000000000000000 ) ) ;
#123 = SHAPE_DEFINITION_REPRESENTATION ( #275, #7 ) ;
#124 = DIRECTION ( 'NONE',  ( 1.000000000000000000, 0.000000000000000000, -0.000000000000000000 ) ) ;
#125 = AXIS2_PLACEMENT_3D ( 'NONE', #25, #145, #175 ) ;
#126 = VERTEX_POINT ( 'NONE', #207 ) ;
#127 = DIRECTION ( 'NONE',  ( 1.000000000000000000, 0.000000000000000000, 0.000000000000000000 ) ) ;
#128 = CC_DESIGN_APPROVAL ( #19, ( #239 ) ) ;
#129 = ADVANCED_FACE ( 'NONE', ( #228 ), #131, .T. ) ;
#130 = CARTESIAN_POINT ( 'NONE',  ( 3.100000000000000089, 3.796405077356794918E-16, 320.0000000000000000 ) ) ;
#131 = PLANE ( 'NONE',  #29 ) ;
#132 = DIRECTION ( 'NONE',  ( -1.000000000000000000, 0.000000000000000000, 0.000000000000000000 ) ) ;
#133 = APPROVAL_PERSON_ORGANIZATION ( #114, #37, #258 ) ;
#134 = CARTESIAN_POINT ( 'NONE',  ( 0.000000000000000000, 0.000000000000000000, 0.000000000000000000 ) ) ;
#135 = EDGE_CURVE ( 'NONE', #136, #246, #230, .T. ) ;
#136 = VERTEX_POINT ( 'NONE', #253 ) ;
#137 = DATE_TIME_ROLE ( 'creation_date' ) ;
#138 = VERTEX_POINT ( 'NONE', #80 ) ;
#139 = AXIS2_PLACEMENT_3D ( 'NONE', #5, #205, #180 ) ;
#140 = COORDINATED_UNIVERSAL_TIME_OFFSET ( 1, 0, .AHEAD. ) ;
#141 = VERTEX_POINT ( 'NONE', #294 ) ;
#142 = APPROVAL_ROLE ( '' ) ;
#143 = LOCAL_TIME ( 12, 11, 4.000000000000000000, #109 ) ;
#144 = CYLINDRICAL_SURFACE ( 'NONE', #115, 3.100000000000000089 ) ;
#145 = DIRECTION ( 'NONE',  ( 0.000000000000000000, 0.000000000000000000, 1.000000000000000000 ) ) ;
#146 = FACE_BOUND ( 'NONE', #303, .T. ) ;
#147 = CIRCLE ( 'NONE', #219, 3.100000000000000089 ) ;
#148 = CARTESIAN_POINT ( 'NONE',  ( 0.000000000000000000, 0.000000000000000000, 5.000000000000000000 ) ) ;
#149 = PLANE ( 'NONE',  #125 ) ;
#150 = DIRECTION ( 'NONE',  ( -1.000000000000000000, 0.000000000000000000, 0.000000000000000000 ) ) ;
#151 = PRODUCT ( '273d', '273d', '', ( #231 ) ) ;
#152 = DIRECTION ( 'NONE',  ( -0.000000000000000000, -0.000000000000000000, -1.000000000000000000 ) ) ;
#153 = ADVANCED_FACE ( 'NONE', ( #34 ), #28, .F. ) ;
#154 = CARTESIAN_POINT ( 'NONE',  ( 0.000000000000000000, 0.000000000000000000, 5.000000000000000000 ) ) ;
#155 = CARTESIAN_POINT ( 'NONE',  ( 3.100000000000000089, 3.796405077356794918E-16, 320.0000000000000000 ) ) ;
#156 = CIRCLE ( 'NONE', #59, 6.000000000000000888 ) ;
#157 = EDGE_CURVE ( 'NONE', #136, #86, #78, .T. ) ;
#158 = CARTESIAN_POINT ( 'NONE',  ( 0.000000000000000000, 0.000000000000000000, 320.0000000000000000 ) ) ;
#159 = LOCAL_TIME ( 12, 11, 4.000000000000000000, #184 ) ;
#160 = CC_DESIGN_SECURITY_CLASSIFICATION ( #74, ( #239 ) ) ;
#161 = DATE_AND_TIME ( #65, #159 ) ;
#162 = ORIENTED_EDGE ( 'NONE', *, *, #178, .F. ) ;
#163 = APPROVAL_DATE_TIME ( #161, #37 ) ;
#164 = ORIENTED_EDGE ( 'NONE', *, *, #108, .T. ) ;
#165 = TOROIDAL_SURFACE ( 'NONE', #20, 3.299999999999999822, 0.2000000000000000111 ) ;
#166 = PRODUCT_DEFINITION ( 'NEZNÁMÝ', '', #239, #206 ) ;
#167 = DATE_TIME_ROLE ( 'classification_date' ) ;
#168 = PERSON_AND_ORGANIZATION_ROLE ( 'design_owner' ) ;
#169 = ADVANCED_FACE ( 'NONE', ( #224 ), #297, .T. ) ;
#170 = LINE ( 'NONE', #268, #3 ) ;
#171 = EDGE_LOOP ( 'NONE', ( #305, #18, #279, #36 ) ) ;
#172 = VERTEX_POINT ( 'NONE', #247 ) ;
#173 = DIRECTION ( 'NONE',  ( -1.000000000000000000, 0.000000000000000000, 0.000000000000000000 ) ) ;
#174 = APPLICATION_CONTEXT ( 'configuration controlled 3d designs of mechanical parts and assemblies' ) ;
#175 = DIRECTION ( 'NONE',  ( 1.000000000000000000, 0.000000000000000000, -0.000000000000000000 ) ) ;
#176 = AXIS2_PLACEMENT_3D ( 'NONE', #267, #73, #71 ) ;
#177 = CARTESIAN_POINT ( 'NONE',  ( 0.000000000000000000, 0.000000000000000000, 5.000000000000000000 ) ) ;
#178 = EDGE_CURVE ( 'NONE', #138, #15, #307, .T. ) ;
#179 = AXIS2_PLACEMENT_3D ( 'NONE', #154, #269, #4 ) ;
#180 = DIRECTION ( 'NONE',  ( -1.000000000000000000, 1.224646799147353207E-16, 0.000000000000000000 ) ) ;
#181 = LINE ( 'NONE', #84, #45 ) ;
#182 = CIRCLE ( 'NONE', #26, 3.299999999999999822 ) ;
#183 = CC_DESIGN_PERSON_AND_ORGANIZATION_ASSIGNMENT ( #280, #38, ( #74 ) ) ;
#184 = COORDINATED_UNIVERSAL_TIME_OFFSET ( 1, 0, .AHEAD. ) ;
#185 = AXIS2_PLACEMENT_3D ( 'NONE', #8, #100, #32 ) ;
#186 = EDGE_CURVE ( 'NONE', #126, #86, #72, .T. ) ;
#187 = DATE_AND_TIME ( #254, #61 ) ;
#188 = VERTEX_POINT ( 'NONE', #155 ) ;
#189 = PERSON_AND_ORGANIZATION_ROLE ( 'design_supplier' ) ;
#190 = PRODUCT_RELATED_PRODUCT_CATEGORY ( 'detail', '', ( #151 ) ) ;
#191 = ORIENTED_EDGE ( 'NONE', *, *, #135, .F. ) ;
#192 = DATE_AND_TIME ( #234, #62 ) ;
#193 = AXIS2_PLACEMENT_3D ( 'NONE', #54, #56, #58 ) ;
#194 = CALENDAR_DATE ( 2022, 7, 7 ) ;
#195 = EDGE_LOOP ( 'NONE', ( #117, #215, #290, #95 ) ) ;
#196 = EDGE_CURVE ( 'NONE', #246, #136, #147, .T. ) ;
#197 = FACE_OUTER_BOUND ( 'NONE', #195, .T. ) ;
#198 = CARTESIAN_POINT ( 'NONE',  ( 0.000000000000000000, 0.000000000000000000, 320.0000000000000000 ) ) ;
#199 = DIRECTION ( 'NONE',  ( 0.000000000000000000, 0.000000000000000000, 1.000000000000000000 ) ) ;
#200 = EDGE_LOOP ( 'NONE', ( #162, #91 ) ) ;
#201 = DIRECTION ( 'NONE',  ( 1.000000000000000000, 0.000000000000000000, -0.000000000000000000 ) ) ;
#202 = CARTESIAN_POINT ( 'NONE',  ( 0.000000000000000000, 0.000000000000000000, 5.199999999999982414 ) ) ;
#203 = CIRCLE ( 'NONE', #66, 6.000000000000000888 ) ;
#204 = DIRECTION ( 'NONE',  ( 1.000000000000000000, 0.000000000000000000, 0.000000000000000000 ) ) ;
#205 = DIRECTION ( 'NONE',  ( 1.224646799147353207E-16, 1.000000000000000000, -0.000000000000000000 ) ) ;
#206 = DESIGN_CONTEXT ( 'detailed design', #2, 'design' ) ;
#207 = CARTESIAN_POINT ( 'NONE',  ( 3.299999999999999822, 0.000000000000000000, 4.999999999999991118 ) ) ;
#208 = PERSON_AND_ORGANIZATION ( #250, #263 ) ;
#209 = DIRECTION ( 'NONE',  ( 0.000000000000000000, 0.000000000000000000, 1.000000000000000000 ) ) ;
#210 = AXIS2_PLACEMENT_3D ( 'NONE', #274, #53, #102 ) ;
#211 = CC_DESIGN_DATE_AND_TIME_ASSIGNMENT ( #187, #137, ( #166 ) ) ;
#212 = PERSON_AND_ORGANIZATION ( #250, #263 ) ;
#213 = PERSON_AND_ORGANIZATION ( #250, #263 ) ;
#214 =( NAMED_UNIT ( * ) PLANE_ANGLE_UNIT ( ) SI_UNIT ( $, .RADIAN. ) );
#215 = ORIENTED_EDGE ( 'NONE', *, *, #278, .T. ) ;
#216 = EDGE_LOOP ( 'NONE', ( #235, #90 ) ) ;
#217 = AXIS2_PLACEMENT_3D ( 'NONE', #241, #50, #122 ) ;
#218 = DIRECTION ( 'NONE',  ( 1.000000000000000000, 0.000000000000000000, 0.000000000000000000 ) ) ;
#219 = AXIS2_PLACEMENT_3D ( 'NONE', #202, #291, #292 ) ;
#220 = FACE_OUTER_BOUND ( 'NONE', #233, .T. ) ;
#221 = FACE_OUTER_BOUND ( 'NONE', #24, .T. ) ;
#222 = CARTESIAN_POINT ( 'NONE',  ( 0.000000000000000000, 0.000000000000000000, 5.199999999999982414 ) ) ;
#223 = EDGE_CURVE ( 'NONE', #300, #15, #251, .T. ) ;
#224 = FACE_OUTER_BOUND ( 'NONE', #64, .T. ) ;
#225 = APPROVAL_PERSON_ORGANIZATION ( #40, #111, #142 ) ;
#226 = DIRECTION ( 'NONE',  ( -0.000000000000000000, -0.000000000000000000, -1.000000000000000000 ) ) ;
#227 = UNCERTAINTY_MEASURE_WITH_UNIT (LENGTH_MEASURE( 1.000000000000000082E-05 ), #282, 'distance_accuracy_value', 'NONE');
#228 = FACE_OUTER_BOUND ( 'NONE', #216, .T. ) ;
#229 = CARTESIAN_POINT ( 'NONE',  ( 6.000000000000000888, 7.347880794884120722E-16, 5.000000000000000000 ) ) ;
#230 = CIRCLE ( 'NONE', #193, 3.100000000000000089 ) ;
#231 = MECHANICAL_CONTEXT ( 'NONE', #174, 'mechanical' ) ;
#232 = APPROVAL_DATE_TIME ( #255, #19 ) ;
#233 = EDGE_LOOP ( 'NONE', ( #257, #164 ) ) ;
#234 = CALENDAR_DATE ( 2022, 7, 7 ) ;
#235 = ORIENTED_EDGE ( 'NONE', *, *, #88, .T. ) ;
#236 = COORDINATED_UNIVERSAL_TIME_OFFSET ( 1, 0, .AHEAD. ) ;
#237 = DATE_AND_TIME ( #194, #46 ) ;
#238 = CC_DESIGN_PERSON_AND_ORGANIZATION_ASSIGNMENT ( #13, #298, ( #166 ) ) ;
#239 = PRODUCT_DEFINITION_FORMATION_WITH_SPECIFIED_SOURCE ( 'LIBOVOLNÝ', '', #151, .NOT_KNOWN. ) ;
#240 = DIRECTION ( 'NONE',  ( 0.000000000000000000, 0.000000000000000000, 1.000000000000000000 ) ) ;
#241 = CARTESIAN_POINT ( 'NONE',  ( 0.000000000000000000, 0.000000000000000000, 5.000000000000000000 ) ) ;
#242 = ORIENTED_EDGE ( 'NONE', *, *, #88, .F. ) ;
#243 = AXIS2_PLACEMENT_3D ( 'NONE', #83, #31, #132 ) ;
#244 = DIRECTION ( 'NONE',  ( 0.000000000000000000, 0.000000000000000000, 1.000000000000000000 ) ) ;
#245 = MANIFOLD_SOLID_BREP ( 'Zaoblit1', #96 ) ;
#246 = VERTEX_POINT ( 'NONE', #27 ) ;
#247 = CARTESIAN_POINT ( 'NONE',  ( -3.100000000000000089, 0.000000000000000000, 320.0000000000000000 ) ) ;
#248 = EDGE_CURVE ( 'NONE', #141, #138, #181, .T. ) ;
#249 = CARTESIAN_POINT ( 'NONE',  ( 6.000000000000000888, 7.347880794884120722E-16, 5.000000000000000000 ) ) ;
#250 = PERSON ( 'NEURÈENÝ', 'NEURÈENÝ', 'NEURÈENÝ', ('NEURÈENÝ'), ('NEURÈENÝ'), ('NEURÈENÝ') ) ;
#251 = LINE ( 'NONE', #249, #259 ) ;
#252 = DIRECTION ( 'NONE',  ( 0.000000000000000000, 0.000000000000000000, 1.000000000000000000 ) ) ;
#253 = CARTESIAN_POINT ( 'NONE',  ( -3.100000000000000089, 0.000000000000000000, 5.199999999999982414 ) ) ;
#254 = CALENDAR_DATE ( 2022, 7, 7 ) ;
#255 = DATE_AND_TIME ( #299, #143 ) ;
#256 = CC_DESIGN_PERSON_AND_ORGANIZATION_ASSIGNMENT ( #301, #189, ( #239 ) ) ;
#257 = ORIENTED_EDGE ( 'NONE', *, *, #55, .T. ) ;
#258 = APPROVAL_ROLE ( '' ) ;
#259 = VECTOR ( 'NONE', #152, 1000.000000000000000 ) ;
#260 = PERSON_AND_ORGANIZATION_ROLE ( 'creator' ) ;
#261 = EDGE_LOOP ( 'NONE', ( #77, #44, #302, #67 ) ) ;
#262 = DIRECTION ( 'NONE',  ( -0.000000000000000000, -0.000000000000000000, -1.000000000000000000 ) ) ;
#263 = ORGANIZATION ( 'NEURÈENÝ', 'NEURÈENÝ', '' ) ;
#264 = CC_DESIGN_APPROVAL ( #111, ( #74 ) ) ;
#265 = CARTESIAN_POINT ( 'NONE',  ( 0.000000000000000000, 0.000000000000000000, 0.000000000000000000 ) ) ;
#266 = FACE_OUTER_BOUND ( 'NONE', #281, .T. ) ;
#267 = CARTESIAN_POINT ( 'NONE',  ( 0.000000000000000000, 0.000000000000000000, 320.0000000000000000 ) ) ;
#268 = CARTESIAN_POINT ( 'NONE',  ( -3.100000000000000089, 0.000000000000000000, 320.0000000000000000 ) ) ;
#269 = DIRECTION ( 'NONE',  ( -0.000000000000000000, -0.000000000000000000, -1.000000000000000000 ) ) ;
#270 = DIRECTION ( 'NONE',  ( -0.000000000000000000, -0.000000000000000000, -1.000000000000000000 ) ) ;
#271 = CYLINDRICAL_SURFACE ( 'NONE', #243, 6.000000000000000888 ) ;
#272 = EDGE_CURVE ( 'NONE', #246, #126, #69, .T. ) ;
#273 = DIRECTION ( 'NONE',  ( 1.000000000000000000, 0.000000000000000000, 0.000000000000000000 ) ) ;
#274 = CARTESIAN_POINT ( 'NONE',  ( 0.000000000000000000, 0.000000000000000000, 5.199999999999982414 ) ) ;
#275 = PRODUCT_DEFINITION_SHAPE ( 'NONE', 'NONE',  #166 ) ;
#276 =( NAMED_UNIT ( * ) SI_UNIT ( $, .STERADIAN. ) SOLID_ANGLE_UNIT ( ) );
#277 = APPROVAL_PERSON_ORGANIZATION ( #213, #19, #112 ) ;
#278 = EDGE_CURVE ( 'NONE', #188, #246, #104, .T. ) ;
#279 = ORIENTED_EDGE ( 'NONE', *, *, #272, .T. ) ;
#280 = PERSON_AND_ORGANIZATION ( #250, #263 ) ;
#281 = EDGE_LOOP ( 'NONE', ( #76, #242, #92, #288 ) ) ;
#282 =( LENGTH_UNIT ( ) NAMED_UNIT ( * ) SI_UNIT ( .MILLI., .METRE. ) );
#283 = CC_DESIGN_DATE_AND_TIME_ASSIGNMENT ( #192, #167, ( #74 ) ) ;
#284 = CARTESIAN_POINT ( 'NONE',  ( 6.000000000000000888, 7.347880794884120722E-16, 0.000000000000000000 ) ) ;
#285 = EDGE_CURVE ( 'NONE', #188, #172, #121, .T. ) ;
#286 = CYLINDRICAL_SURFACE ( 'NONE', #176, 3.100000000000000089 ) ;
#287 = ADVANCED_FACE ( 'NONE', ( #82 ), #271, .T. ) ;
#288 = ORIENTED_EDGE ( 'NONE', *, *, #135, .T. ) ;
#289 = ORIENTED_EDGE ( 'NONE', *, *, #186, .F. ) ;
#290 = ORIENTED_EDGE ( 'NONE', *, *, #196, .T. ) ;
#291 = DIRECTION ( 'NONE',  ( 0.000000000000000000, 0.000000000000000000, 1.000000000000000000 ) ) ;
#292 = DIRECTION ( 'NONE',  ( 1.000000000000000000, 0.000000000000000000, 0.000000000000000000 ) ) ;
#293 = CC_DESIGN_PERSON_AND_ORGANIZATION_ASSIGNMENT ( #212, #260, ( #239 ) ) ;
#294 = CARTESIAN_POINT ( 'NONE',  ( -6.000000000000000888, 0.000000000000000000, 5.000000000000000000 ) ) ;
#295 = AXIS2_PLACEMENT_3D ( 'NONE', #158, #6, #204 ) ;
#296 = DIRECTION ( 'NONE',  ( -0.000000000000000000, -0.000000000000000000, -1.000000000000000000 ) ) ;
#297 = CYLINDRICAL_SURFACE ( 'NONE', #118, 6.000000000000000888 ) ;
#298 = PERSON_AND_ORGANIZATION_ROLE ( 'creator' ) ;
#299 = CALENDAR_DATE ( 2022, 7, 7 ) ;
#300 = VERTEX_POINT ( 'NONE', #229 ) ;
#301 = PERSON_AND_ORGANIZATION ( #250, #263 ) ;
#302 = ORIENTED_EDGE ( 'NONE', *, *, #248, .T. ) ;
#303 = EDGE_LOOP ( 'NONE', ( #113, #110 ) ) ;
#304 = ORIENTED_EDGE ( 'NONE', *, *, #35, .T. ) ;
#305 = ORIENTED_EDGE ( 'NONE', *, *, #157, .F. ) ;
#306 = CARTESIAN_POINT ( 'NONE',  ( -3.299999999999999822, 4.041334437186265510E-16, 4.999999999999991118 ) ) ;
#307 = CIRCLE ( 'NONE', #185, 6.000000000000000888 ) ;
ENDSEC;
END-ISO-10303-21;
