ISO-10303-21;
HEADER;
FILE_DESCRIPTION (( 'STEP AP203' ),
    '1' );
FILE_NAME ('e13c.STEP',
    '2022-07-07T09:58:23',
    ( '' ),
    ( '' ),
    'SwSTEP 2.0',
    'SolidWorks 2019',
    '' );
FILE_SCHEMA (( 'CONFIG_CONTROL_DESIGN' ));
ENDSEC;

DATA;
#1 = CARTESIAN_POINT ( 'NONE',  ( 4.450000000000000178, 0.000000000000000000, 5.199999999999982414 ) ) ;
#2 = CARTESIAN_POINT ( 'NONE',  ( 7.000000000000000000, 8.572527594031473190E-16, 5.000000000000000000 ) ) ;
#3 = FACE_OUTER_BOUND ( 'NONE', #8, .T. ) ;
#4 = DIRECTION ( 'NONE',  ( -0.000000000000000000, -0.000000000000000000, -1.000000000000000000 ) ) ;
#5 = EDGE_CURVE ( 'NONE', #206, #220, #234, .T. ) ;
#6 =( NAMED_UNIT ( * ) SI_UNIT ( $, .STERADIAN. ) SOLID_ANGLE_UNIT ( ) );
#7 = VERTEX_POINT ( 'NONE', #179 ) ;
#8 = EDGE_LOOP ( 'NONE', ( #113, #224, #176, #16 ) ) ;
#9 = CIRCLE ( 'NONE', #134, 4.450000000000000178 ) ;
#10 = PRODUCT_DEFINITION_FORMATION_WITH_SPECIFIED_SOURCE ( 'LIBOVOLNÝ', '', #167, .NOT_KNOWN. ) ;
#11 = ORIENTED_EDGE ( 'NONE', *, *, #274, .F. ) ;
#12 = DESIGN_CONTEXT ( 'detailed design', #244, 'design' ) ;
#13 = DIRECTION ( 'NONE',  ( -1.000000000000000000, 1.224646799147353454E-16, 0.000000000000000000 ) ) ;
#14 = CYLINDRICAL_SURFACE ( 'NONE', #241, 4.250000000000000000 ) ;
#15 = ORIENTED_EDGE ( 'NONE', *, *, #196, .T. ) ;
#16 = ORIENTED_EDGE ( 'NONE', *, *, #58, .F. ) ;
#17 = CARTESIAN_POINT ( 'NONE',  ( 4.250000000000000000, 5.204748896376250699E-16, 405.0000000000000000 ) ) ;
#18 = APPROVAL ( #213, 'NEURÈENÝ' ) ;
#19 = AXIS2_PLACEMENT_3D ( 'NONE', #240, #227, #269 ) ;
#20 = AXIS2_PLACEMENT_3D ( 'NONE', #1, #254, #124 ) ;
#21 = APPLICATION_PROTOCOL_DEFINITION ( 'international standard', 'config_control_design', 1994, #107 ) ;
#22 = CARTESIAN_POINT ( 'NONE',  ( 0.000000000000000000, 0.000000000000000000, 405.0000000000000000 ) ) ;
#23 = APPLICATION_PROTOCOL_DEFINITION ( 'international standard', 'config_control_design', 1994, #244 ) ;
#24 = CYLINDRICAL_SURFACE ( 'NONE', #267, 7.000000000000000000 ) ;
#25 = ORIENTED_EDGE ( 'NONE', *, *, #80, .T. ) ;
#26 = FACE_OUTER_BOUND ( 'NONE', #154, .T. ) ;
#27 = CIRCLE ( 'NONE', #209, 4.250000000000000000 ) ;
#28 = DIRECTION ( 'NONE',  ( -0.000000000000000000, -0.000000000000000000, -1.000000000000000000 ) ) ;
#29 = ADVANCED_FACE ( 'NONE', ( #298 ), #275, .F. ) ;
#30 = ORIENTED_EDGE ( 'NONE', *, *, #199, .F. ) ;
#31 = VERTEX_POINT ( 'NONE', #155 ) ;
#32 = DATE_AND_TIME ( #138, #278 ) ;
#33 = ORIENTED_EDGE ( 'NONE', *, *, #80, .F. ) ;
#34 = SECURITY_CLASSIFICATION_LEVEL ( 'unclassified' ) ;
#35 = CARTESIAN_POINT ( 'NONE',  ( 4.450000000000000178, 0.000000000000000000, 4.999999999999991118 ) ) ;
#36 = DATE_AND_TIME ( #301, #191 ) ;
#37 = CC_DESIGN_PERSON_AND_ORGANIZATION_ASSIGNMENT ( #162, #67, ( #10 ) ) ;
#38 = LINE ( 'NONE', #17, #93 ) ;
#39 = APPROVAL_ROLE ( '' ) ;
#40 = VECTOR ( 'NONE', #261, 1000.000000000000000 ) ;
#41 = CARTESIAN_POINT ( 'NONE',  ( -4.450000000000000178, 5.449678256205721784E-16, 4.999999999999991118 ) ) ;
#42 = DIRECTION ( 'NONE',  ( 1.000000000000000000, 0.000000000000000000, 0.000000000000000000 ) ) ;
#43 = PRODUCT_DEFINITION_SHAPE ( 'NONE', 'NONE',  #294 ) ;
#44 = DIRECTION ( 'NONE',  ( 0.000000000000000000, 0.000000000000000000, 1.000000000000000000 ) ) ;
#45 = MECHANICAL_CONTEXT ( 'NONE', #107, 'mechanical' ) ;
#46 = CARTESIAN_POINT ( 'NONE',  ( -4.250000000000000000, 0.000000000000000000, 405.0000000000000000 ) ) ;
#47 = MANIFOLD_SOLID_BREP ( 'Zaoblit1', #277 ) ;
#48 = CC_DESIGN_PERSON_AND_ORGANIZATION_ASSIGNMENT ( #165, #202, ( #10 ) ) ;
#49 = ORIENTED_EDGE ( 'NONE', *, *, #217, .T. ) ;
#50 = EDGE_CURVE ( 'NONE', #206, #7, #197, .T. ) ;
#51 = CIRCLE ( 'NONE', #152, 4.250000000000000000 ) ;
#52 = AXIS2_PLACEMENT_3D ( 'NONE', #119, #122, #306 ) ;
#53 = EDGE_LOOP ( 'NONE', ( #239, #49 ) ) ;
#54 = VERTEX_POINT ( 'NONE', #223 ) ;
#55 = CARTESIAN_POINT ( 'NONE',  ( 0.000000000000000000, 0.000000000000000000, 0.000000000000000000 ) ) ;
#56 = ADVANCED_FACE ( 'NONE', ( #26 ), #14, .T. ) ;
#57 = CARTESIAN_POINT ( 'NONE',  ( 0.000000000000000000, 0.000000000000000000, 405.0000000000000000 ) ) ;
#58 = EDGE_CURVE ( 'NONE', #62, #249, #243, .T. ) ;
#59 = DIRECTION ( 'NONE',  ( -0.000000000000000000, -0.000000000000000000, -1.000000000000000000 ) ) ;
#60 = APPROVAL_ROLE ( '' ) ;
#61 = UNCERTAINTY_MEASURE_WITH_UNIT (LENGTH_MEASURE( 1.000000000000000082E-05 ), #283, 'distance_accuracy_value', 'NONE');
#62 = VERTEX_POINT ( 'NONE', #160 ) ;
#63 = ADVANCED_FACE ( 'NONE', ( #109, #296 ), #180, .T. ) ;
#64 = ORIENTED_EDGE ( 'NONE', *, *, #88, .F. ) ;
#65 = AXIS2_PLACEMENT_3D ( 'NONE', #270, #59, #158 ) ;
#66 = DIRECTION ( 'NONE',  ( -0.000000000000000000, -0.000000000000000000, -1.000000000000000000 ) ) ;
#67 = PERSON_AND_ORGANIZATION_ROLE ( 'design_supplier' ) ;
#68 = CARTESIAN_POINT ( 'NONE',  ( 0.000000000000000000, 0.000000000000000000, 5.000000000000000000 ) ) ;
#69 = PERSON_AND_ORGANIZATION ( #76, #235 ) ;
#70 = DIRECTION ( 'NONE',  ( 0.000000000000000000, 0.000000000000000000, 1.000000000000000000 ) ) ;
#71 =( NAMED_UNIT ( * ) PLANE_ANGLE_UNIT ( ) SI_UNIT ( $, .RADIAN. ) );
#72 = AXIS2_PLACEMENT_3D ( 'NONE', #139, #178, #13 ) ;
#73 = CC_DESIGN_APPROVAL ( #18, ( #294 ) ) ;
#74 = DIRECTION ( 'NONE',  ( 1.000000000000000000, 0.000000000000000000, 0.000000000000000000 ) ) ;
#75 = CARTESIAN_POINT ( 'NONE',  ( -7.000000000000000000, 0.000000000000000000, 0.000000000000000000 ) ) ;
#76 = PERSON ( 'NEURÈENÝ', 'NEURÈENÝ', 'NEURÈENÝ', ('NEURÈENÝ'), ('NEURÈENÝ'), ('NEURÈENÝ') ) ;
#77 = CARTESIAN_POINT ( 'NONE',  ( 0.000000000000000000, 0.000000000000000000, 0.000000000000000000 ) ) ;
#78 = AXIS2_PLACEMENT_3D ( 'NONE', #169, #129, #233 ) ;
#79 = ORIENTED_EDGE ( 'NONE', *, *, #196, .F. ) ;
#80 = EDGE_CURVE ( 'NONE', #157, #220, #120, .T. ) ;
#81 = CC_DESIGN_APPROVAL ( #236, ( #195 ) ) ;
#82 = VERTEX_POINT ( 'NONE', #245 ) ;
#83 = ORIENTED_EDGE ( 'NONE', *, *, #219, .T. ) ;
#84 = DIRECTION ( 'NONE',  ( 1.000000000000000000, 0.000000000000000000, -0.000000000000000000 ) ) ;
#85 = PERSON_AND_ORGANIZATION ( #76, #235 ) ;
#86 = CIRCLE ( 'NONE', #214, 7.000000000000000000 ) ;
#87 = ORIENTED_EDGE ( 'NONE', *, *, #5, .T. ) ;
#88 = EDGE_CURVE ( 'NONE', #7, #206, #51, .T. ) ;
#89 = VERTEX_POINT ( 'NONE', #183 ) ;
#90 = CALENDAR_DATE ( 2022, 7, 7 ) ;
#91 = CARTESIAN_POINT ( 'NONE',  ( 0.000000000000000000, 0.000000000000000000, 5.000000000000000000 ) ) ;
#92 = CALENDAR_DATE ( 2022, 7, 7 ) ;
#93 = VECTOR ( 'NONE', #232, 1000.000000000000000 ) ;
#94 = LOCAL_TIME ( 11, 58, 23.00000000000000000, #114 ) ;
#95 = FACE_OUTER_BOUND ( 'NONE', #182, .T. ) ;
#96 = DATE_TIME_ROLE ( 'classification_date' ) ;
#97 = CARTESIAN_POINT ( 'NONE',  ( 0.000000000000000000, 0.000000000000000000, 405.0000000000000000 ) ) ;
#98 = DIRECTION ( 'NONE',  ( 1.000000000000000000, 0.000000000000000000, 0.000000000000000000 ) ) ;
#99 = FACE_OUTER_BOUND ( 'NONE', #300, .T. ) ;
#100 = CIRCLE ( 'NONE', #263, 4.250000000000000000 ) ;
#101 = APPROVAL_PERSON_ORGANIZATION ( #159, #236, #60 ) ;
#102 = DIRECTION ( 'NONE',  ( -1.000000000000000000, 0.000000000000000000, 0.000000000000000000 ) ) ;
#103 = EDGE_CURVE ( 'NONE', #220, #157, #9, .T. ) ;
#104 = TOROIDAL_SURFACE ( 'NONE', #304, 4.450000000000000178, 0.2000000000000000111 ) ;
#105 = ORIENTED_EDGE ( 'NONE', *, *, #199, .T. ) ;
#106 = APPROVAL_PERSON_ORGANIZATION ( #125, #18, #39 ) ;
#107 = APPLICATION_CONTEXT ( 'configuration controlled 3d designs of mechanical parts and assemblies' ) ;
#108 = ORIENTED_EDGE ( 'NONE', *, *, #253, .T. ) ;
#109 = FACE_BOUND ( 'NONE', #268, .T. ) ;
#110 = VECTOR ( 'NONE', #28, 1000.000000000000000 ) ;
#111 = DIRECTION ( 'NONE',  ( -1.000000000000000000, 0.000000000000000000, 0.000000000000000000 ) ) ;
#112 = LOCAL_TIME ( 11, 58, 23.00000000000000000, #117 ) ;
#113 = ORIENTED_EDGE ( 'NONE', *, *, #299, .F. ) ;
#114 = COORDINATED_UNIVERSAL_TIME_OFFSET ( 1, 0, .AHEAD. ) ;
#115 = ADVANCED_FACE ( 'NONE', ( #99 ), #104, .F. ) ;
#116 = ORIENTED_EDGE ( 'NONE', *, *, #88, .T. ) ;
#117 = COORDINATED_UNIVERSAL_TIME_OFFSET ( 1, 0, .AHEAD. ) ;
#118 = EDGE_CURVE ( 'NONE', #89, #31, #146, .T. ) ;
#119 = CARTESIAN_POINT ( 'NONE',  ( 0.000000000000000000, 0.000000000000000000, 0.000000000000000000 ) ) ;
#120 = CIRCLE ( 'NONE', #65, 4.450000000000000178 ) ;
#121 = CIRCLE ( 'NONE', #52, 7.000000000000000000 ) ;
#122 = DIRECTION ( 'NONE',  ( 0.000000000000000000, 0.000000000000000000, 1.000000000000000000 ) ) ;
#123 = DIRECTION ( 'NONE',  ( 1.000000000000000000, 0.000000000000000000, 0.000000000000000000 ) ) ;
#124 = DIRECTION ( 'NONE',  ( 0.000000000000000000, 0.000000000000000000, -1.000000000000000000 ) ) ;
#125 = PERSON_AND_ORGANIZATION ( #76, #235 ) ;
#126 = ADVANCED_FACE ( 'NONE', ( #284 ), #302, .T. ) ;
#127 = AXIS2_PLACEMENT_3D ( 'NONE', #55, #200, #135 ) ;
#128 = AXIS2_PLACEMENT_3D ( 'NONE', #190, #151, #98 ) ;
#129 = DIRECTION ( 'NONE',  ( 0.000000000000000000, 0.000000000000000000, 1.000000000000000000 ) ) ;
#130 =( GEOMETRIC_REPRESENTATION_CONTEXT ( 3 ) GLOBAL_UNCERTAINTY_ASSIGNED_CONTEXT ( ( #61 ) ) GLOBAL_UNIT_ASSIGNED_CONTEXT ( ( #283, #71, #6 ) ) REPRESENTATION_CONTEXT ( 'NONE', 'WORKASPACE' ) );
#131 = EDGE_LOOP ( 'NONE', ( #291, #87, #33, #136 ) ) ;
#132 = ADVANCED_FACE ( 'NONE', ( #230 ), #305, .F. ) ;
#133 = ORIENTED_EDGE ( 'NONE', *, *, #103, .F. ) ;
#134 = AXIS2_PLACEMENT_3D ( 'NONE', #68, #144, #231 ) ;
#135 = DIRECTION ( 'NONE',  ( 1.000000000000000000, 0.000000000000000000, -0.000000000000000000 ) ) ;
#136 = ORIENTED_EDGE ( 'NONE', *, *, #148, .F. ) ;
#137 = ORIENTED_EDGE ( 'NONE', *, *, #50, .T. ) ;
#138 = CALENDAR_DATE ( 2022, 7, 7 ) ;
#139 = CARTESIAN_POINT ( 'NONE',  ( -4.450000000000000178, 5.449678256205721784E-16, 5.199999999999982414 ) ) ;
#140 = DATE_AND_TIME ( #307, #290 ) ;
#141 = CIRCLE ( 'NONE', #128, 7.000000000000000000 ) ;
#142 = ORIENTED_EDGE ( 'NONE', *, *, #5, .F. ) ;
#143 = DIRECTION ( 'NONE',  ( 1.000000000000000000, 0.000000000000000000, 0.000000000000000000 ) ) ;
#144 = DIRECTION ( 'NONE',  ( -0.000000000000000000, -0.000000000000000000, -1.000000000000000000 ) ) ;
#145 = CIRCLE ( 'NONE', #198, 7.000000000000000000 ) ;
#146 = LINE ( 'NONE', #2, #172 ) ;
#147 = CARTESIAN_POINT ( 'NONE',  ( 0.000000000000000000, 0.000000000000000000, 5.000000000000000000 ) ) ;
#148 = EDGE_CURVE ( 'NONE', #7, #157, #221, .T. ) ;
#149 = DIRECTION ( 'NONE',  ( 1.000000000000000000, 0.000000000000000000, 0.000000000000000000 ) ) ;
#150 = PERSON_AND_ORGANIZATION_ROLE ( 'design_owner' ) ;
#151 = DIRECTION ( 'NONE',  ( 0.000000000000000000, 0.000000000000000000, 1.000000000000000000 ) ) ;
#152 = AXIS2_PLACEMENT_3D ( 'NONE', #181, #273, #143 ) ;
#153 = EDGE_LOOP ( 'NONE', ( #194, #105, #116, #218 ) ) ;
#154 = EDGE_LOOP ( 'NONE', ( #30, #264, #108, #137 ) ) ;
#155 = CARTESIAN_POINT ( 'NONE',  ( 7.000000000000000000, 8.572527594031473190E-16, 0.000000000000000000 ) ) ;
#156 = CC_DESIGN_APPROVAL ( #166, ( #10 ) ) ;
#157 = VERTEX_POINT ( 'NONE', #35 ) ;
#158 = DIRECTION ( 'NONE',  ( 1.000000000000000000, 0.000000000000000000, 0.000000000000000000 ) ) ;
#159 = PERSON_AND_ORGANIZATION ( #76, #235 ) ;
#160 = CARTESIAN_POINT ( 'NONE',  ( -7.000000000000000000, 0.000000000000000000, 5.000000000000000000 ) ) ;
#161 = EDGE_LOOP ( 'NONE', ( #15, #174 ) ) ;
#162 = PERSON_AND_ORGANIZATION ( #76, #235 ) ;
#163 = CARTESIAN_POINT ( 'NONE',  ( 0.000000000000000000, 0.000000000000000000, 405.0000000000000000 ) ) ;
#164 = DIRECTION ( 'NONE',  ( -0.000000000000000000, -0.000000000000000000, -1.000000000000000000 ) ) ;
#165 = PERSON_AND_ORGANIZATION ( #76, #235 ) ;
#166 = APPROVAL ( #279, 'NEURÈENÝ' ) ;
#167 = PRODUCT ( 'e13c', 'e13c', '', ( #45 ) ) ;
#168 = DIRECTION ( 'NONE',  ( -1.000000000000000000, 0.000000000000000000, 0.000000000000000000 ) ) ;
#169 = CARTESIAN_POINT ( 'NONE',  ( 0.000000000000000000, 0.000000000000000000, 405.0000000000000000 ) ) ;
#170 = DIRECTION ( 'NONE',  ( -1.000000000000000000, 0.000000000000000000, 0.000000000000000000 ) ) ;
#171 = DIRECTION ( 'NONE',  ( 0.000000000000000000, 0.000000000000000000, 1.000000000000000000 ) ) ;
#172 = VECTOR ( 'NONE', #66, 1000.000000000000000 ) ;
#173 = AXIS2_PLACEMENT_3D ( 'NONE', #22, #164, #170 ) ;
#174 = ORIENTED_EDGE ( 'NONE', *, *, #299, .T. ) ;
#175 = CC_DESIGN_DATE_AND_TIME_ASSIGNMENT ( #36, #96, ( #195 ) ) ;
#176 = ORIENTED_EDGE ( 'NONE', *, *, #274, .T. ) ;
#177 = AXIS2_PLACEMENT_3D ( 'NONE', #77, #171, #123 ) ;
#178 = DIRECTION ( 'NONE',  ( 1.224646799147353207E-16, 1.000000000000000000, -0.000000000000000000 ) ) ;
#179 = CARTESIAN_POINT ( 'NONE',  ( 4.250000000000000000, 5.204748896376250699E-16, 5.199999999999982414 ) ) ;
#180 = PLANE ( 'NONE',  #189 ) ;
#181 = CARTESIAN_POINT ( 'NONE',  ( 0.000000000000000000, 0.000000000000000000, 5.199999999999982414 ) ) ;
#182 = EDGE_LOOP ( 'NONE', ( #215, #79, #293, #83 ) ) ;
#183 = CARTESIAN_POINT ( 'NONE',  ( 7.000000000000000000, 8.572527594031473190E-16, 5.000000000000000000 ) ) ;
#184 = COORDINATED_UNIVERSAL_TIME_OFFSET ( 1, 0, .AHEAD. ) ;
#185 = CARTESIAN_POINT ( 'NONE',  ( 0.000000000000000000, 0.000000000000000000, 5.199999999999982414 ) ) ;
#186 = DATE_TIME_ROLE ( 'creation_date' ) ;
#187 = DIRECTION ( 'NONE',  ( -0.000000000000000000, -0.000000000000000000, -1.000000000000000000 ) ) ;
#188 = DIRECTION ( 'NONE',  ( 1.000000000000000000, 0.000000000000000000, 0.000000000000000000 ) ) ;
#189 = AXIS2_PLACEMENT_3D ( 'NONE', #225, #204, #84 ) ;
#190 = CARTESIAN_POINT ( 'NONE',  ( 0.000000000000000000, 0.000000000000000000, 5.000000000000000000 ) ) ;
#191 = LOCAL_TIME ( 11, 58, 23.00000000000000000, #228 ) ;
#192 = FACE_OUTER_BOUND ( 'NONE', #53, .T. ) ;
#193 = PRODUCT_RELATED_PRODUCT_CATEGORY ( 'detail', '', ( #167 ) ) ;
#194 = ORIENTED_EDGE ( 'NONE', *, *, #217, .F. ) ;
#195 = SECURITY_CLASSIFICATION ( '', '', #34 ) ;
#196 = EDGE_CURVE ( 'NONE', #62, #89, #145, .T. ) ;
#197 = CIRCLE ( 'NONE', #19, 4.250000000000000000 ) ;
#198 = AXIS2_PLACEMENT_3D ( 'NONE', #91, #44, #149 ) ;
#199 = EDGE_CURVE ( 'NONE', #82, #7, #38, .T. ) ;
#200 = DIRECTION ( 'NONE',  ( 0.000000000000000000, 0.000000000000000000, 1.000000000000000000 ) ) ;
#201 = ORIENTED_EDGE ( 'NONE', *, *, #219, .F. ) ;
#202 = PERSON_AND_ORGANIZATION_ROLE ( 'creator' ) ;
#203 = ORIENTED_EDGE ( 'NONE', *, *, #103, .T. ) ;
#204 = DIRECTION ( 'NONE',  ( 0.000000000000000000, 0.000000000000000000, 1.000000000000000000 ) ) ;
#205 = APPROVAL_DATE_TIME ( #140, #166 ) ;
#206 = VERTEX_POINT ( 'NONE', #229 ) ;
#207 = DIRECTION ( 'NONE',  ( 0.000000000000000000, 0.000000000000000000, 1.000000000000000000 ) ) ;
#208 = DATE_AND_TIME ( #92, #112 ) ;
#209 = AXIS2_PLACEMENT_3D ( 'NONE', #97, #282, #257 ) ;
#210 = CYLINDRICAL_SURFACE ( 'NONE', #265, 7.000000000000000000 ) ;
#211 = DIRECTION ( 'NONE',  ( 0.000000000000000000, 0.000000000000000000, 1.000000000000000000 ) ) ;
#212 = ADVANCED_BREP_SHAPE_REPRESENTATION ( 'e13c', ( #47, #177 ), #130 ) ;
#213 = APPROVAL_STATUS ( 'not_yet_approved' ) ;
#214 = AXIS2_PLACEMENT_3D ( 'NONE', #258, #262, #42 ) ;
#215 = ORIENTED_EDGE ( 'NONE', *, *, #118, .F. ) ;
#216 = CC_DESIGN_PERSON_AND_ORGANIZATION_ASSIGNMENT ( #297, #281, ( #294 ) ) ;
#217 = EDGE_CURVE ( 'NONE', #82, #54, #100, .T. ) ;
#218 = ORIENTED_EDGE ( 'NONE', *, *, #253, .F. ) ;
#219 = EDGE_CURVE ( 'NONE', #249, #31, #121, .T. ) ;
#220 = VERTEX_POINT ( 'NONE', #41 ) ;
#221 = CIRCLE ( 'NONE', #20, 0.1999999999999996503 ) ;
#222 = CARTESIAN_POINT ( 'NONE',  ( -7.000000000000000000, 0.000000000000000000, 5.000000000000000000 ) ) ;
#223 = CARTESIAN_POINT ( 'NONE',  ( -4.250000000000000000, 0.000000000000000000, 405.0000000000000000 ) ) ;
#224 = ORIENTED_EDGE ( 'NONE', *, *, #118, .T. ) ;
#225 = CARTESIAN_POINT ( 'NONE',  ( 0.000000000000000000, 0.000000000000000000, 5.000000000000000000 ) ) ;
#226 = SHAPE_DEFINITION_REPRESENTATION ( #43, #212 ) ;
#227 = DIRECTION ( 'NONE',  ( 0.000000000000000000, 0.000000000000000000, 1.000000000000000000 ) ) ;
#228 = COORDINATED_UNIVERSAL_TIME_OFFSET ( 1, 0, .AHEAD. ) ;
#229 = CARTESIAN_POINT ( 'NONE',  ( -4.250000000000000000, 0.000000000000000000, 5.199999999999982414 ) ) ;
#230 = FACE_OUTER_BOUND ( 'NONE', #131, .T. ) ;
#231 = DIRECTION ( 'NONE',  ( 1.000000000000000000, 0.000000000000000000, 0.000000000000000000 ) ) ;
#232 = DIRECTION ( 'NONE',  ( -0.000000000000000000, -0.000000000000000000, -1.000000000000000000 ) ) ;
#233 = DIRECTION ( 'NONE',  ( 1.000000000000000000, 0.000000000000000000, -0.000000000000000000 ) ) ;
#234 = CIRCLE ( 'NONE', #72, 0.1999999999999996503 ) ;
#235 = ORGANIZATION ( 'NEURÈENÝ', 'NEURÈENÝ', '' ) ;
#236 = APPROVAL ( #276, 'NEURÈENÝ' ) ;
#237 = ORIENTED_EDGE ( 'NONE', *, *, #148, .T. ) ;
#238 = ADVANCED_FACE ( 'NONE', ( #95 ), #210, .T. ) ;
#239 = ORIENTED_EDGE ( 'NONE', *, *, #248, .T. ) ;
#240 = CARTESIAN_POINT ( 'NONE',  ( 0.000000000000000000, 0.000000000000000000, 5.199999999999982414 ) ) ;
#241 = AXIS2_PLACEMENT_3D ( 'NONE', #57, #295, #111 ) ;
#242 = APPROVAL_PERSON_ORGANIZATION ( #69, #166, #250 ) ;
#243 = LINE ( 'NONE', #222, #110 ) ;
#244 = APPLICATION_CONTEXT ( 'configuration controlled 3d designs of mechanical parts and assemblies' ) ;
#245 = CARTESIAN_POINT ( 'NONE',  ( 4.250000000000000000, 5.204748896376250699E-16, 405.0000000000000000 ) ) ;
#246 = APPROVAL_DATE_TIME ( #208, #18 ) ;
#247 = EDGE_LOOP ( 'NONE', ( #201, #11 ) ) ;
#248 = EDGE_CURVE ( 'NONE', #54, #82, #27, .T. ) ;
#249 = VERTEX_POINT ( 'NONE', #75 ) ;
#250 = APPROVAL_ROLE ( '' ) ;
#251 = DIRECTION ( 'NONE',  ( 1.000000000000000000, 0.000000000000000000, 0.000000000000000000 ) ) ;
#252 = APPROVAL_DATE_TIME ( #271, #236 ) ;
#253 = EDGE_CURVE ( 'NONE', #54, #206, #286, .T. ) ;
#254 = DIRECTION ( 'NONE',  ( 0.000000000000000000, -1.000000000000000000, 0.000000000000000000 ) ) ;
#255 = PERSON_AND_ORGANIZATION_ROLE ( 'classification_officer' ) ;
#256 = CC_DESIGN_PERSON_AND_ORGANIZATION_ASSIGNMENT ( #260, #150, ( #167 ) ) ;
#257 = DIRECTION ( 'NONE',  ( 1.000000000000000000, 0.000000000000000000, 0.000000000000000000 ) ) ;
#258 = CARTESIAN_POINT ( 'NONE',  ( 0.000000000000000000, 0.000000000000000000, 0.000000000000000000 ) ) ;
#259 = CARTESIAN_POINT ( 'NONE',  ( 0.000000000000000000, 0.000000000000000000, 5.199999999999982414 ) ) ;
#260 = PERSON_AND_ORGANIZATION ( #76, #235 ) ;
#261 = DIRECTION ( 'NONE',  ( -0.000000000000000000, -0.000000000000000000, -1.000000000000000000 ) ) ;
#262 = DIRECTION ( 'NONE',  ( 0.000000000000000000, 0.000000000000000000, 1.000000000000000000 ) ) ;
#263 = AXIS2_PLACEMENT_3D ( 'NONE', #163, #211, #251 ) ;
#264 = ORIENTED_EDGE ( 'NONE', *, *, #248, .F. ) ;
#265 = AXIS2_PLACEMENT_3D ( 'NONE', #280, #187, #168 ) ;
#266 = CC_DESIGN_SECURITY_CLASSIFICATION ( #195, ( #10 ) ) ;
#267 = AXIS2_PLACEMENT_3D ( 'NONE', #147, #4, #102 ) ;
#268 = EDGE_LOOP ( 'NONE', ( #25, #203 ) ) ;
#269 = DIRECTION ( 'NONE',  ( 1.000000000000000000, 0.000000000000000000, 0.000000000000000000 ) ) ;
#270 = CARTESIAN_POINT ( 'NONE',  ( 0.000000000000000000, 0.000000000000000000, 5.000000000000000000 ) ) ;
#271 = DATE_AND_TIME ( #90, #94 ) ;
#272 = ADVANCED_FACE ( 'NONE', ( #3 ), #24, .T. ) ;
#273 = DIRECTION ( 'NONE',  ( 0.000000000000000000, 0.000000000000000000, 1.000000000000000000 ) ) ;
#274 = EDGE_CURVE ( 'NONE', #31, #249, #86, .T. ) ;
#275 = PLANE ( 'NONE',  #127 ) ;
#276 = APPROVAL_STATUS ( 'not_yet_approved' ) ;
#277 = CLOSED_SHELL ( 'NONE', ( #132, #126, #272, #238, #63, #29, #56, #287, #115 ) ) ;
#278 = LOCAL_TIME ( 11, 58, 23.00000000000000000, #303 ) ;
#279 = APPROVAL_STATUS ( 'not_yet_approved' ) ;
#280 = CARTESIAN_POINT ( 'NONE',  ( 0.000000000000000000, 0.000000000000000000, 5.000000000000000000 ) ) ;
#281 = PERSON_AND_ORGANIZATION_ROLE ( 'creator' ) ;
#282 = DIRECTION ( 'NONE',  ( 0.000000000000000000, 0.000000000000000000, 1.000000000000000000 ) ) ;
#283 =( LENGTH_UNIT ( ) NAMED_UNIT ( * ) SI_UNIT ( .MILLI., .METRE. ) );
#284 = FACE_OUTER_BOUND ( 'NONE', #153, .T. ) ;
#285 = AXIS2_PLACEMENT_3D ( 'NONE', #259, #207, #74 ) ;
#286 = LINE ( 'NONE', #46, #40 ) ;
#287 = ADVANCED_FACE ( 'NONE', ( #192 ), #288, .T. ) ;
#288 = PLANE ( 'NONE',  #78 ) ;
#289 = CC_DESIGN_PERSON_AND_ORGANIZATION_ASSIGNMENT ( #85, #255, ( #195 ) ) ;
#290 = LOCAL_TIME ( 11, 58, 23.00000000000000000, #184 ) ;
#291 = ORIENTED_EDGE ( 'NONE', *, *, #50, .F. ) ;
#292 = CC_DESIGN_DATE_AND_TIME_ASSIGNMENT ( #32, #186, ( #294 ) ) ;
#293 = ORIENTED_EDGE ( 'NONE', *, *, #58, .T. ) ;
#294 = PRODUCT_DEFINITION ( 'NEZNÁMÝ', '', #10, #12 ) ;
#295 = DIRECTION ( 'NONE',  ( -0.000000000000000000, -0.000000000000000000, -1.000000000000000000 ) ) ;
#296 = FACE_OUTER_BOUND ( 'NONE', #161, .T. ) ;
#297 = PERSON_AND_ORGANIZATION ( #76, #235 ) ;
#298 = FACE_OUTER_BOUND ( 'NONE', #247, .T. ) ;
#299 = EDGE_CURVE ( 'NONE', #89, #62, #141, .T. ) ;
#300 = EDGE_LOOP ( 'NONE', ( #142, #64, #237, #133 ) ) ;
#301 = CALENDAR_DATE ( 2022, 7, 7 ) ;
#302 = CYLINDRICAL_SURFACE ( 'NONE', #173, 4.250000000000000000 ) ;
#303 = COORDINATED_UNIVERSAL_TIME_OFFSET ( 1, 0, .AHEAD. ) ;
#304 = AXIS2_PLACEMENT_3D ( 'NONE', #185, #70, #188 ) ;
#305 = TOROIDAL_SURFACE ( 'NONE', #285, 4.450000000000000178, 0.2000000000000000111 ) ;
#306 = DIRECTION ( 'NONE',  ( 1.000000000000000000, 0.000000000000000000, 0.000000000000000000 ) ) ;
#307 = CALENDAR_DATE ( 2022, 7, 7 ) ;
ENDSEC;
END-ISO-10303-21;
