ISO-10303-21;
HEADER;
FILE_DESCRIPTION (( 'STEP AP203' ),
    '1' );
FILE_NAME ('1bf7.STEP',
    '2022-07-07T09:58:49',
    ( '' ),
    ( '' ),
    'SwSTEP 2.0',
    'SolidWorks 2019',
    '' );
FILE_SCHEMA (( 'CONFIG_CONTROL_DESIGN' ));
ENDSEC;

DATA;
#1 = ORIENTED_EDGE ( 'NONE', *, *, #186, .F. ) ;
#2 = APPROVAL ( #290, 'NEURÈENÝ' ) ;
#3 = EDGE_LOOP ( 'NONE', ( #162, #100, #29, #45 ) ) ;
#4 = EDGE_LOOP ( 'NONE', ( #95, #170, #141, #68 ) ) ;
#5 = AXIS2_PLACEMENT_3D ( 'NONE', #202, #13, #146 ) ;
#6 = LOCAL_TIME ( 11, 58, 49.00000000000000000, #281 ) ;
#7 = PLANE ( 'NONE',  #102 ) ;
#8 = PLANE ( 'NONE',  #208 ) ;
#9 = DIRECTION ( 'NONE',  ( 1.000000000000000000, 0.000000000000000000, 0.000000000000000000 ) ) ;
#10 = UNCERTAINTY_MEASURE_WITH_UNIT (LENGTH_MEASURE( 1.000000000000000082E-05 ), #296, 'distance_accuracy_value', 'NONE');
#11 = EDGE_CURVE ( 'NONE', #73, #123, #150, .T. ) ;
#12 = ORGANIZATION ( 'NEURÈENÝ', 'NEURÈENÝ', '' ) ;
#13 = DIRECTION ( 'NONE',  ( 0.000000000000000000, 0.000000000000000000, 1.000000000000000000 ) ) ;
#14 = AXIS2_PLACEMENT_3D ( 'NONE', #193, #274, #198 ) ;
#15 = CARTESIAN_POINT ( 'NONE',  ( 7.000000000000000000, 8.572527594031473190E-16, 0.000000000000000000 ) ) ;
#16 = CARTESIAN_POINT ( 'NONE',  ( 0.000000000000000000, 0.000000000000000000, 5.200000000000009948 ) ) ;
#17 = FACE_OUTER_BOUND ( 'NONE', #236, .T. ) ;
#18 = APPROVAL_ROLE ( '' ) ;
#19 = VERTEX_POINT ( 'NONE', #116 ) ;
#20 = PERSON_AND_ORGANIZATION ( #172, #12 ) ;
#21 = DIRECTION ( 'NONE',  ( -1.000000000000000000, 0.000000000000000000, 0.000000000000000000 ) ) ;
#22 = ADVANCED_FACE ( 'NONE', ( #139 ), #138, .T. ) ;
#23 = CC_DESIGN_DATE_AND_TIME_ASSIGNMENT ( #134, #233, ( #225 ) ) ;
#24 = DATE_AND_TIME ( #286, #119 ) ;
#25 = CARTESIAN_POINT ( 'NONE',  ( 0.000000000000000000, 0.000000000000000000, 205.0000000000000284 ) ) ;
#26 = APPROVAL_PERSON_ORGANIZATION ( #136, #276, #18 ) ;
#27 = AXIS2_PLACEMENT_3D ( 'NONE', #48, #187, #285 ) ;
#28 = CIRCLE ( 'NONE', #219, 7.000000000000000000 ) ;
#29 = ORIENTED_EDGE ( 'NONE', *, *, #272, .T. ) ;
#30 = FACE_OUTER_BOUND ( 'NONE', #4, .T. ) ;
#31 = AXIS2_PLACEMENT_3D ( 'NONE', #203, #231, #109 ) ;
#32 = VECTOR ( 'NONE', #55, 1000.000000000000000 ) ;
#33 = LINE ( 'NONE', #103, #283 ) ;
#34 = DIRECTION ( 'NONE',  ( -0.000000000000000000, -0.000000000000000000, -1.000000000000000000 ) ) ;
#35 = CYLINDRICAL_SURFACE ( 'NONE', #181, 4.250000000000000000 ) ;
#36 = DIRECTION ( 'NONE',  ( 1.000000000000000000, 0.000000000000000000, -0.000000000000000000 ) ) ;
#37 = PERSON_AND_ORGANIZATION_ROLE ( 'creator' ) ;
#38 = TOROIDAL_SURFACE ( 'NONE', #214, 4.450000000000000178, 0.2000000000000000111 ) ;
#39 = DIRECTION ( 'NONE',  ( 1.000000000000000000, 0.000000000000000000, 0.000000000000000000 ) ) ;
#40 = CALENDAR_DATE ( 2022, 7, 7 ) ;
#41 = CARTESIAN_POINT ( 'NONE',  ( 0.000000000000000000, 0.000000000000000000, 5.000000000000000000 ) ) ;
#42 = PERSON_AND_ORGANIZATION_ROLE ( 'design_owner' ) ;
#43 = ORIENTED_EDGE ( 'NONE', *, *, #182, .F. ) ;
#44 = PLANE ( 'NONE',  #31 ) ;
#45 = ORIENTED_EDGE ( 'NONE', *, *, #140, .F. ) ;
#46 = EDGE_CURVE ( 'NONE', #54, #211, #166, .T. ) ;
#47 = ORIENTED_EDGE ( 'NONE', *, *, #161, .F. ) ;
#48 = CARTESIAN_POINT ( 'NONE',  ( -4.450000000000000178, 5.449678256205721784E-16, 5.200000000000009948 ) ) ;
#49 = PERSON_AND_ORGANIZATION_ROLE ( 'design_supplier' ) ;
#50 = PERSON_AND_ORGANIZATION_ROLE ( 'classification_officer' ) ;
#51 = AXIS2_PLACEMENT_3D ( 'NONE', #16, #152, #298 ) ;
#52 = CC_DESIGN_APPROVAL ( #276, ( #148 ) ) ;
#53 = CC_DESIGN_PERSON_AND_ORGANIZATION_ASSIGNMENT ( #237, #50, ( #96 ) ) ;
#54 = VERTEX_POINT ( 'NONE', #65 ) ;
#55 = DIRECTION ( 'NONE',  ( -0.000000000000000000, -0.000000000000000000, -1.000000000000000000 ) ) ;
#56 = DIRECTION ( 'NONE',  ( 0.000000000000000000, 0.000000000000000000, 1.000000000000000000 ) ) ;
#57 = CARTESIAN_POINT ( 'NONE',  ( 0.000000000000000000, 0.000000000000000000, 205.0000000000000284 ) ) ;
#58 = CARTESIAN_POINT ( 'NONE',  ( 4.450000000000000178, 0.000000000000000000, 5.000000000000005329 ) ) ;
#59 = CARTESIAN_POINT ( 'NONE',  ( 0.000000000000000000, 0.000000000000000000, 5.200000000000009948 ) ) ;
#60 = APPROVAL_STATUS ( 'not_yet_approved' ) ;
#61 = DIRECTION ( 'NONE',  ( 0.000000000000000000, 0.000000000000000000, 1.000000000000000000 ) ) ;
#62 = VECTOR ( 'NONE', #130, 1000.000000000000000 ) ;
#63 = DIRECTION ( 'NONE',  ( 1.000000000000000000, 0.000000000000000000, 0.000000000000000000 ) ) ;
#64 = CC_DESIGN_APPROVAL ( #2, ( #96 ) ) ;
#65 = CARTESIAN_POINT ( 'NONE',  ( -7.000000000000000000, 0.000000000000000000, 0.000000000000000000 ) ) ;
#66 = AXIS2_PLACEMENT_3D ( 'NONE', #25, #117, #21 ) ;
#67 = PERSON_AND_ORGANIZATION ( #172, #12 ) ;
#68 = ORIENTED_EDGE ( 'NONE', *, *, #252, .F. ) ;
#69 = FACE_OUTER_BOUND ( 'NONE', #71, .T. ) ;
#70 = ORIENTED_EDGE ( 'NONE', *, *, #254, .F. ) ;
#71 = EDGE_LOOP ( 'NONE', ( #122, #163 ) ) ;
#72 = ADVANCED_FACE ( 'NONE', ( #279 ), #188, .T. ) ;
#73 = VERTEX_POINT ( 'NONE', #135 ) ;
#74 = DESIGN_CONTEXT ( 'detailed design', #104, 'design' ) ;
#75 = ADVANCED_FACE ( 'NONE', ( #17 ), #8, .F. ) ;
#76 = SHAPE_DEFINITION_REPRESENTATION ( #212, #189 ) ;
#77 = CIRCLE ( 'NONE', #250, 7.000000000000000000 ) ;
#78 = AXIS2_PLACEMENT_3D ( 'NONE', #256, #149, #39 ) ;
#79 = AXIS2_PLACEMENT_3D ( 'NONE', #173, #299, #227 ) ;
#80 = CC_DESIGN_PERSON_AND_ORGANIZATION_ASSIGNMENT ( #156, #42, ( #306 ) ) ;
#81 = CIRCLE ( 'NONE', #169, 4.450000000000000178 ) ;
#82 = CARTESIAN_POINT ( 'NONE',  ( 4.250000000000000000, 5.204748896376250699E-16, 205.0000000000000284 ) ) ;
#83 = DIRECTION ( 'NONE',  ( 1.000000000000000000, 0.000000000000000000, 0.000000000000000000 ) ) ;
#84 = EDGE_CURVE ( 'NONE', #220, #269, #246, .T. ) ;
#85 = DIRECTION ( 'NONE',  ( 0.000000000000000000, 0.000000000000000000, 1.000000000000000000 ) ) ;
#86 = APPLICATION_PROTOCOL_DEFINITION ( 'international standard', 'config_control_design', 1994, #121 ) ;
#87 = CYLINDRICAL_SURFACE ( 'NONE', #14, 7.000000000000000000 ) ;
#88 = LINE ( 'NONE', #180, #32 ) ;
#89 =( GEOMETRIC_REPRESENTATION_CONTEXT ( 3 ) GLOBAL_UNCERTAINTY_ASSIGNED_CONTEXT ( ( #10 ) ) GLOBAL_UNIT_ASSIGNED_CONTEXT ( ( #296, #105, #179 ) ) REPRESENTATION_CONTEXT ( 'NONE', 'WORKASPACE' ) );
#90 = CIRCLE ( 'NONE', #5, 7.000000000000000000 ) ;
#91 = ORIENTED_EDGE ( 'NONE', *, *, #218, .T. ) ;
#92 = DIRECTION ( 'NONE',  ( 0.000000000000000000, 0.000000000000000000, -1.000000000000000000 ) ) ;
#93 = EDGE_LOOP ( 'NONE', ( #70, #287, #113, #145 ) ) ;
#94 = EDGE_CURVE ( 'NONE', #73, #157, #192, .T. ) ;
#95 = ORIENTED_EDGE ( 'NONE', *, *, #94, .F. ) ;
#96 = SECURITY_CLASSIFICATION ( '', '', #118 ) ;
#97 = CC_DESIGN_PERSON_AND_ORGANIZATION_ASSIGNMENT ( #20, #142, ( #148 ) ) ;
#98 = APPROVAL_DATE_TIME ( #210, #2 ) ;
#99 = ORIENTED_EDGE ( 'NONE', *, *, #272, .F. ) ;
#100 = ORIENTED_EDGE ( 'NONE', *, *, #254, .T. ) ;
#101 = DIRECTION ( 'NONE',  ( 0.000000000000000000, 0.000000000000000000, 1.000000000000000000 ) ) ;
#102 = AXIS2_PLACEMENT_3D ( 'NONE', #57, #56, #36 ) ;
#103 = CARTESIAN_POINT ( 'NONE',  ( -4.250000000000000000, 0.000000000000000000, 205.0000000000000284 ) ) ;
#104 = APPLICATION_CONTEXT ( 'configuration controlled 3d designs of mechanical parts and assemblies' ) ;
#105 =( NAMED_UNIT ( * ) PLANE_ANGLE_UNIT ( ) SI_UNIT ( $, .RADIAN. ) );
#106 = FACE_OUTER_BOUND ( 'NONE', #271, .T. ) ;
#107 = DIRECTION ( 'NONE',  ( 0.000000000000000000, 0.000000000000000000, 1.000000000000000000 ) ) ;
#108 = DIRECTION ( 'NONE',  ( 1.000000000000000000, 0.000000000000000000, 0.000000000000000000 ) ) ;
#109 = DIRECTION ( 'NONE',  ( 1.000000000000000000, 0.000000000000000000, -0.000000000000000000 ) ) ;
#110 = ORIENTED_EDGE ( 'NONE', *, *, #195, .F. ) ;
#111 = AXIS2_PLACEMENT_3D ( 'NONE', #301, #107, #232 ) ;
#112 = APPROVAL_ROLE ( '' ) ;
#113 = ORIENTED_EDGE ( 'NONE', *, *, #140, .T. ) ;
#114 = ADVANCED_FACE ( 'NONE', ( #131 ), #87, .T. ) ;
#115 = PERSON_AND_ORGANIZATION ( #172, #12 ) ;
#116 = CARTESIAN_POINT ( 'NONE',  ( 7.000000000000000000, 8.572527594031473190E-16, 5.000000000000000000 ) ) ;
#117 = DIRECTION ( 'NONE',  ( -0.000000000000000000, -0.000000000000000000, -1.000000000000000000 ) ) ;
#118 = SECURITY_CLASSIFICATION_LEVEL ( 'unclassified' ) ;
#119 = LOCAL_TIME ( 11, 58, 49.00000000000000000, #206 ) ;
#120 = VERTEX_POINT ( 'NONE', #297 ) ;
#121 = APPLICATION_CONTEXT ( 'configuration controlled 3d designs of mechanical parts and assemblies' ) ;
#122 = ORIENTED_EDGE ( 'NONE', *, *, #195, .T. ) ;
#123 = VERTEX_POINT ( 'NONE', #273 ) ;
#124 = MANIFOLD_SOLID_BREP ( 'Zaoblit1', #158 ) ;
#125 = DIRECTION ( 'NONE',  ( 0.000000000000000000, -1.000000000000000000, 0.000000000000000000 ) ) ;
#126 = CARTESIAN_POINT ( 'NONE',  ( 0.000000000000000000, 0.000000000000000000, 5.200000000000009948 ) ) ;
#127 = ADVANCED_FACE ( 'NONE', ( #106 ), #7, .T. ) ;
#128 = AXIS2_PLACEMENT_3D ( 'NONE', #41, #261, #137 ) ;
#129 = CARTESIAN_POINT ( 'NONE',  ( 0.000000000000000000, 0.000000000000000000, 0.000000000000000000 ) ) ;
#130 = DIRECTION ( 'NONE',  ( -0.000000000000000000, -0.000000000000000000, -1.000000000000000000 ) ) ;
#131 = FACE_OUTER_BOUND ( 'NONE', #242, .T. ) ;
#132 = COORDINATED_UNIVERSAL_TIME_OFFSET ( 1, 0, .AHEAD. ) ;
#133 = DIRECTION ( 'NONE',  ( 1.000000000000000000, 0.000000000000000000, 0.000000000000000000 ) ) ;
#134 = DATE_AND_TIME ( #40, #280 ) ;
#135 = CARTESIAN_POINT ( 'NONE',  ( -4.250000000000000000, 0.000000000000000000, 5.200000000000009948 ) ) ;
#136 = PERSON_AND_ORGANIZATION ( #172, #12 ) ;
#137 = DIRECTION ( 'NONE',  ( -1.000000000000000000, 0.000000000000000000, 0.000000000000000000 ) ) ;
#138 = CYLINDRICAL_SURFACE ( 'NONE', #66, 4.250000000000000000 ) ;
#139 = FACE_OUTER_BOUND ( 'NONE', #3, .T. ) ;
#140 = EDGE_CURVE ( 'NONE', #269, #73, #33, .T. ) ;
#141 = ORIENTED_EDGE ( 'NONE', *, *, #178, .F. ) ;
#142 = PERSON_AND_ORGANIZATION_ROLE ( 'creator' ) ;
#143 = EDGE_CURVE ( 'NONE', #120, #54, #147, .T. ) ;
#144 = CIRCLE ( 'NONE', #51, 4.250000000000000000 ) ;
#145 = ORIENTED_EDGE ( 'NONE', *, *, #94, .T. ) ;
#146 = DIRECTION ( 'NONE',  ( 1.000000000000000000, 0.000000000000000000, 0.000000000000000000 ) ) ;
#147 = LINE ( 'NONE', #230, #288 ) ;
#148 = PRODUCT_DEFINITION_FORMATION_WITH_SPECIFIED_SOURCE ( 'LIBOVOLNÝ', '', #306, .NOT_KNOWN. ) ;
#149 = DIRECTION ( 'NONE',  ( -0.000000000000000000, -0.000000000000000000, -1.000000000000000000 ) ) ;
#150 = CIRCLE ( 'NONE', #27, 0.1999999999999996503 ) ;
#151 = CARTESIAN_POINT ( 'NONE',  ( 0.000000000000000000, 0.000000000000000000, 5.200000000000009948 ) ) ;
#152 = DIRECTION ( 'NONE',  ( 0.000000000000000000, 0.000000000000000000, 1.000000000000000000 ) ) ;
#153 = DIRECTION ( 'NONE',  ( -0.000000000000000000, -0.000000000000000000, -1.000000000000000000 ) ) ;
#154 = AXIS2_PLACEMENT_3D ( 'NONE', #247, #125, #92 ) ;
#155 = PRODUCT_RELATED_PRODUCT_CATEGORY ( 'detail', '', ( #306 ) ) ;
#156 = PERSON_AND_ORGANIZATION ( #172, #12 ) ;
#157 = VERTEX_POINT ( 'NONE', #177 ) ;
#158 = CLOSED_SHELL ( 'NONE', ( #168, #22, #114, #72, #305, #75, #267, #127, #201 ) ) ;
#159 = LINE ( 'NONE', #229, #62 ) ;
#160 = DIRECTION ( 'NONE',  ( 0.000000000000000000, 0.000000000000000000, 1.000000000000000000 ) ) ;
#161 = EDGE_CURVE ( 'NONE', #211, #54, #28, .T. ) ;
#162 = ORIENTED_EDGE ( 'NONE', *, *, #84, .F. ) ;
#163 = ORIENTED_EDGE ( 'NONE', *, *, #186, .T. ) ;
#164 = COORDINATED_UNIVERSAL_TIME_OFFSET ( 1, 0, .AHEAD. ) ;
#165 = EDGE_LOOP ( 'NONE', ( #241, #282 ) ) ;
#166 = CIRCLE ( 'NONE', #226, 7.000000000000000000 ) ;
#167 = APPROVAL_DATE_TIME ( #24, #276 ) ;
#168 = ADVANCED_FACE ( 'NONE', ( #30 ), #292, .F. ) ;
#169 = AXIS2_PLACEMENT_3D ( 'NONE', #175, #153, #295 ) ;
#170 = ORIENTED_EDGE ( 'NONE', *, *, #11, .T. ) ;
#171 = DIRECTION ( 'NONE',  ( 1.000000000000000000, 0.000000000000000000, -0.000000000000000000 ) ) ;
#172 = PERSON ( 'NEURÈENÝ', 'NEURÈENÝ', 'NEURÈENÝ', ('NEURÈENÝ'), ('NEURÈENÝ'), ('NEURÈENÝ') ) ;
#173 = CARTESIAN_POINT ( 'NONE',  ( 0.000000000000000000, 0.000000000000000000, 205.0000000000000284 ) ) ;
#174 = MECHANICAL_CONTEXT ( 'NONE', #121, 'mechanical' ) ;
#175 = CARTESIAN_POINT ( 'NONE',  ( 0.000000000000000000, 0.000000000000000000, 5.000000000000000000 ) ) ;
#176 = CARTESIAN_POINT ( 'NONE',  ( 0.000000000000000000, 0.000000000000000000, 205.0000000000000284 ) ) ;
#177 = CARTESIAN_POINT ( 'NONE',  ( 4.250000000000000000, 5.204748896376250699E-16, 5.200000000000009948 ) ) ;
#178 = EDGE_CURVE ( 'NONE', #263, #123, #81, .T. ) ;
#179 =( NAMED_UNIT ( * ) SI_UNIT ( $, .STERADIAN. ) SOLID_ANGLE_UNIT ( ) );
#180 = CARTESIAN_POINT ( 'NONE',  ( 7.000000000000000000, 8.572527594031473190E-16, 5.000000000000000000 ) ) ;
#181 = AXIS2_PLACEMENT_3D ( 'NONE', #176, #300, #275 ) ;
#182 = EDGE_CURVE ( 'NONE', #123, #263, #191, .T. ) ;
#183 = AXIS2_PLACEMENT_3D ( 'NONE', #151, #85, #249 ) ;
#184 = DATE_AND_TIME ( #255, #6 ) ;
#185 = EDGE_LOOP ( 'NONE', ( #238, #110, #265, #239 ) ) ;
#186 = EDGE_CURVE ( 'NONE', #19, #120, #77, .T. ) ;
#187 = DIRECTION ( 'NONE',  ( 1.224646799147353207E-16, 1.000000000000000000, -0.000000000000000000 ) ) ;
#188 = CYLINDRICAL_SURFACE ( 'NONE', #128, 7.000000000000000000 ) ;
#189 = ADVANCED_BREP_SHAPE_REPRESENTATION ( '1bf7', ( #124, #257 ), #89 ) ;
#190 = DATE_AND_TIME ( #217, #303 ) ;
#191 = CIRCLE ( 'NONE', #78, 4.450000000000000178 ) ;
#192 = CIRCLE ( 'NONE', #245, 4.250000000000000000 ) ;
#193 = CARTESIAN_POINT ( 'NONE',  ( 0.000000000000000000, 0.000000000000000000, 5.000000000000000000 ) ) ;
#194 = DIRECTION ( 'NONE',  ( -0.000000000000000000, -0.000000000000000000, -1.000000000000000000 ) ) ;
#195 = EDGE_CURVE ( 'NONE', #120, #19, #90, .T. ) ;
#196 = APPROVAL ( #60, 'NEURÈENÝ' ) ;
#197 = FACE_BOUND ( 'NONE', #165, .T. ) ;
#198 = DIRECTION ( 'NONE',  ( -1.000000000000000000, 0.000000000000000000, 0.000000000000000000 ) ) ;
#199 = FACE_OUTER_BOUND ( 'NONE', #93, .T. ) ;
#200 = DIRECTION ( 'NONE',  ( 0.000000000000000000, 0.000000000000000000, 1.000000000000000000 ) ) ;
#201 = ADVANCED_FACE ( 'NONE', ( #294 ), #38, .F. ) ;
#202 = CARTESIAN_POINT ( 'NONE',  ( 0.000000000000000000, 0.000000000000000000, 5.000000000000000000 ) ) ;
#203 = CARTESIAN_POINT ( 'NONE',  ( 0.000000000000000000, 0.000000000000000000, 5.000000000000000000 ) ) ;
#204 = ORIENTED_EDGE ( 'NONE', *, *, #252, .T. ) ;
#205 = APPROVAL_PERSON_ORGANIZATION ( #277, #196, #112 ) ;
#206 = COORDINATED_UNIVERSAL_TIME_OFFSET ( 1, 0, .AHEAD. ) ;
#207 = EDGE_LOOP ( 'NONE', ( #259, #99, #204, #43 ) ) ;
#208 = AXIS2_PLACEMENT_3D ( 'NONE', #129, #101, #171 ) ;
#209 = EDGE_CURVE ( 'NONE', #269, #220, #223, .T. ) ;
#210 = DATE_AND_TIME ( #240, #270 ) ;
#211 = VERTEX_POINT ( 'NONE', #15 ) ;
#212 = PRODUCT_DEFINITION_SHAPE ( 'NONE', 'NONE',  #225 ) ;
#213 = CARTESIAN_POINT ( 'NONE',  ( 0.000000000000000000, 0.000000000000000000, 0.000000000000000000 ) ) ;
#214 = AXIS2_PLACEMENT_3D ( 'NONE', #59, #200, #133 ) ;
#215 = COORDINATED_UNIVERSAL_TIME_OFFSET ( 1, 0, .AHEAD. ) ;
#216 = CC_DESIGN_PERSON_AND_ORGANIZATION_ASSIGNMENT ( #67, #37, ( #225 ) ) ;
#217 = CALENDAR_DATE ( 2022, 7, 7 ) ;
#218 = EDGE_CURVE ( 'NONE', #19, #211, #88, .T. ) ;
#219 = AXIS2_PLACEMENT_3D ( 'NONE', #278, #61, #9 ) ;
#220 = VERTEX_POINT ( 'NONE', #82 ) ;
#221 = ORIENTED_EDGE ( 'NONE', *, *, #84, .T. ) ;
#222 = CC_DESIGN_PERSON_AND_ORGANIZATION_ASSIGNMENT ( #244, #49, ( #148 ) ) ;
#223 = CIRCLE ( 'NONE', #111, 4.250000000000000000 ) ;
#224 = DIRECTION ( 'NONE',  ( 0.000000000000000000, 0.000000000000000000, 1.000000000000000000 ) ) ;
#225 = PRODUCT_DEFINITION ( 'NEZNÁMÝ', '', #148, #74 ) ;
#226 = AXIS2_PLACEMENT_3D ( 'NONE', #213, #160, #307 ) ;
#227 = DIRECTION ( 'NONE',  ( 1.000000000000000000, 0.000000000000000000, 0.000000000000000000 ) ) ;
#228 = DIRECTION ( 'NONE',  ( 0.000000000000000000, 0.000000000000000000, 1.000000000000000000 ) ) ;
#229 = CARTESIAN_POINT ( 'NONE',  ( 4.250000000000000000, 5.204748896376250699E-16, 205.0000000000000284 ) ) ;
#230 = CARTESIAN_POINT ( 'NONE',  ( -7.000000000000000000, 0.000000000000000000, 5.000000000000000000 ) ) ;
#231 = DIRECTION ( 'NONE',  ( 0.000000000000000000, 0.000000000000000000, 1.000000000000000000 ) ) ;
#232 = DIRECTION ( 'NONE',  ( 1.000000000000000000, 0.000000000000000000, 0.000000000000000000 ) ) ;
#233 = DATE_TIME_ROLE ( 'creation_date' ) ;
#234 = ORIENTED_EDGE ( 'NONE', *, *, #161, .T. ) ;
#235 = APPROVAL_STATUS ( 'not_yet_approved' ) ;
#236 = EDGE_LOOP ( 'NONE', ( #302, #47 ) ) ;
#237 = PERSON_AND_ORGANIZATION ( #172, #12 ) ;
#238 = ORIENTED_EDGE ( 'NONE', *, *, #218, .F. ) ;
#239 = ORIENTED_EDGE ( 'NONE', *, *, #46, .T. ) ;
#240 = CALENDAR_DATE ( 2022, 7, 7 ) ;
#241 = ORIENTED_EDGE ( 'NONE', *, *, #178, .T. ) ;
#242 = EDGE_LOOP ( 'NONE', ( #1, #91, #234, #264 ) ) ;
#243 = CC_DESIGN_SECURITY_CLASSIFICATION ( #96, ( #148 ) ) ;
#244 = PERSON_AND_ORGANIZATION ( #172, #12 ) ;
#245 = AXIS2_PLACEMENT_3D ( 'NONE', #126, #228, #83 ) ;
#246 = CIRCLE ( 'NONE', #79, 4.250000000000000000 ) ;
#247 = CARTESIAN_POINT ( 'NONE',  ( 4.450000000000000178, 0.000000000000000000, 5.200000000000009948 ) ) ;
#248 = CC_DESIGN_APPROVAL ( #196, ( #225 ) ) ;
#249 = DIRECTION ( 'NONE',  ( 1.000000000000000000, 0.000000000000000000, 0.000000000000000000 ) ) ;
#250 = AXIS2_PLACEMENT_3D ( 'NONE', #251, #224, #108 ) ;
#251 = CARTESIAN_POINT ( 'NONE',  ( 0.000000000000000000, 0.000000000000000000, 5.000000000000000000 ) ) ;
#252 = EDGE_CURVE ( 'NONE', #157, #263, #293, .T. ) ;
#253 = APPLICATION_PROTOCOL_DEFINITION ( 'international standard', 'config_control_design', 1994, #104 ) ;
#254 = EDGE_CURVE ( 'NONE', #220, #157, #159, .T. ) ;
#255 = CALENDAR_DATE ( 2022, 7, 7 ) ;
#256 = CARTESIAN_POINT ( 'NONE',  ( 0.000000000000000000, 0.000000000000000000, 5.000000000000000000 ) ) ;
#257 = AXIS2_PLACEMENT_3D ( 'NONE', #284, #262, #63 ) ;
#258 = APPROVAL_DATE_TIME ( #184, #196 ) ;
#259 = ORIENTED_EDGE ( 'NONE', *, *, #11, .F. ) ;
#260 = CARTESIAN_POINT ( 'NONE',  ( -4.250000000000000000, 0.000000000000000000, 205.0000000000000284 ) ) ;
#261 = DIRECTION ( 'NONE',  ( -0.000000000000000000, -0.000000000000000000, -1.000000000000000000 ) ) ;
#262 = DIRECTION ( 'NONE',  ( 0.000000000000000000, 0.000000000000000000, 1.000000000000000000 ) ) ;
#263 = VERTEX_POINT ( 'NONE', #58 ) ;
#264 = ORIENTED_EDGE ( 'NONE', *, *, #143, .F. ) ;
#265 = ORIENTED_EDGE ( 'NONE', *, *, #143, .T. ) ;
#266 = APPROVAL_ROLE ( '' ) ;
#267 = ADVANCED_FACE ( 'NONE', ( #199 ), #35, .T. ) ;
#268 = APPROVAL_PERSON_ORGANIZATION ( #115, #2, #266 ) ;
#269 = VERTEX_POINT ( 'NONE', #260 ) ;
#270 = LOCAL_TIME ( 11, 58, 49.00000000000000000, #215 ) ;
#271 = EDGE_LOOP ( 'NONE', ( #304, #221 ) ) ;
#272 = EDGE_CURVE ( 'NONE', #157, #73, #144, .T. ) ;
#273 = CARTESIAN_POINT ( 'NONE',  ( -4.450000000000000178, 5.449678256205721784E-16, 5.000000000000005329 ) ) ;
#274 = DIRECTION ( 'NONE',  ( -0.000000000000000000, -0.000000000000000000, -1.000000000000000000 ) ) ;
#275 = DIRECTION ( 'NONE',  ( -1.000000000000000000, 0.000000000000000000, 0.000000000000000000 ) ) ;
#276 = APPROVAL ( #235, 'NEURÈENÝ' ) ;
#277 = PERSON_AND_ORGANIZATION ( #172, #12 ) ;
#278 = CARTESIAN_POINT ( 'NONE',  ( 0.000000000000000000, 0.000000000000000000, 0.000000000000000000 ) ) ;
#279 = FACE_OUTER_BOUND ( 'NONE', #185, .T. ) ;
#280 = LOCAL_TIME ( 11, 58, 49.00000000000000000, #132 ) ;
#281 = COORDINATED_UNIVERSAL_TIME_OFFSET ( 1, 0, .AHEAD. ) ;
#282 = ORIENTED_EDGE ( 'NONE', *, *, #182, .T. ) ;
#283 = VECTOR ( 'NONE', #34, 1000.000000000000000 ) ;
#284 = CARTESIAN_POINT ( 'NONE',  ( 0.000000000000000000, 0.000000000000000000, 0.000000000000000000 ) ) ;
#285 = DIRECTION ( 'NONE',  ( -1.000000000000000000, 1.224646799147353454E-16, 0.000000000000000000 ) ) ;
#286 = CALENDAR_DATE ( 2022, 7, 7 ) ;
#287 = ORIENTED_EDGE ( 'NONE', *, *, #209, .F. ) ;
#288 = VECTOR ( 'NONE', #194, 1000.000000000000000 ) ;
#289 = CC_DESIGN_DATE_AND_TIME_ASSIGNMENT ( #190, #291, ( #96 ) ) ;
#290 = APPROVAL_STATUS ( 'not_yet_approved' ) ;
#291 = DATE_TIME_ROLE ( 'classification_date' ) ;
#292 = TOROIDAL_SURFACE ( 'NONE', #183, 4.450000000000000178, 0.2000000000000000111 ) ;
#293 = CIRCLE ( 'NONE', #154, 0.1999999999999996503 ) ;
#294 = FACE_OUTER_BOUND ( 'NONE', #207, .T. ) ;
#295 = DIRECTION ( 'NONE',  ( 1.000000000000000000, 0.000000000000000000, 0.000000000000000000 ) ) ;
#296 =( LENGTH_UNIT ( ) NAMED_UNIT ( * ) SI_UNIT ( .MILLI., .METRE. ) );
#297 = CARTESIAN_POINT ( 'NONE',  ( -7.000000000000000000, 0.000000000000000000, 5.000000000000000000 ) ) ;
#298 = DIRECTION ( 'NONE',  ( 1.000000000000000000, 0.000000000000000000, 0.000000000000000000 ) ) ;
#299 = DIRECTION ( 'NONE',  ( 0.000000000000000000, 0.000000000000000000, 1.000000000000000000 ) ) ;
#300 = DIRECTION ( 'NONE',  ( -0.000000000000000000, -0.000000000000000000, -1.000000000000000000 ) ) ;
#301 = CARTESIAN_POINT ( 'NONE',  ( 0.000000000000000000, 0.000000000000000000, 205.0000000000000284 ) ) ;
#302 = ORIENTED_EDGE ( 'NONE', *, *, #46, .F. ) ;
#303 = LOCAL_TIME ( 11, 58, 49.00000000000000000, #164 ) ;
#304 = ORIENTED_EDGE ( 'NONE', *, *, #209, .T. ) ;
#305 = ADVANCED_FACE ( 'NONE', ( #197, #69 ), #44, .T. ) ;
#306 = PRODUCT ( '1bf7', '1bf7', '', ( #174 ) ) ;
#307 = DIRECTION ( 'NONE',  ( 1.000000000000000000, 0.000000000000000000, 0.000000000000000000 ) ) ;
ENDSEC;
END-ISO-10303-21;
