ISO-10303-21;
HEADER;
FILE_DESCRIPTION (( 'STEP AP203' ),
    '1' );
FILE_NAME ('d47f.STEP',
    '2022-07-07T09:56:14',
    ( '' ),
    ( '' ),
    'SwSTEP 2.0',
    'SolidWorks 2019',
    '' );
FILE_SCHEMA (( 'CONFIG_CONTROL_DESIGN' ));
ENDSEC;

DATA;
#1 = CARTESIAN_POINT ( 'NONE',  ( 4.700000000000000178, 0.000000000000000000, 5.199999999999982414 ) ) ;
#2 = EDGE_CURVE ( 'NONE', #154, #74, #95, .T. ) ;
#3 = AXIS2_PLACEMENT_3D ( 'NONE', #207, #83, #233 ) ;
#4 = FACE_OUTER_BOUND ( 'NONE', #60, .T. ) ;
#5 = AXIS2_PLACEMENT_3D ( 'NONE', #114, #172, #147 ) ;
#6 = PRODUCT_RELATED_PRODUCT_CATEGORY ( 'detail', '', ( #199 ) ) ;
#7 = DATE_AND_TIME ( #73, #261 ) ;
#8 = APPROVAL_ROLE ( '' ) ;
#9 = APPROVAL_STATUS ( 'not_yet_approved' ) ;
#10 = EDGE_LOOP ( 'NONE', ( #129, #227, #157, #249 ) ) ;
#11 = APPLICATION_CONTEXT ( 'configuration controlled 3d designs of mechanical parts and assemblies' ) ;
#12 = ORIENTED_EDGE ( 'NONE', *, *, #23, .F. ) ;
#13 = DIRECTION ( 'NONE',  ( 0.000000000000000000, 0.000000000000000000, 1.000000000000000000 ) ) ;
#14 = ORIENTED_EDGE ( 'NONE', *, *, #67, .T. ) ;
#15 = COORDINATED_UNIVERSAL_TIME_OFFSET ( 1, 0, .AHEAD. ) ;
#16 = CC_DESIGN_PERSON_AND_ORGANIZATION_ASSIGNMENT ( #219, #68, ( #199 ) ) ;
#17 = CIRCLE ( 'NONE', #173, 0.1999999999999996503 ) ;
#18 = EDGE_LOOP ( 'NONE', ( #180, #275, #152, #174 ) ) ;
#19 = DIRECTION ( 'NONE',  ( -0.000000000000000000, -0.000000000000000000, -1.000000000000000000 ) ) ;
#20 = DIRECTION ( 'NONE',  ( 1.000000000000000000, 0.000000000000000000, 0.000000000000000000 ) ) ;
#21 = DIRECTION ( 'NONE',  ( 1.000000000000000000, 0.000000000000000000, 0.000000000000000000 ) ) ;
#22 = TOROIDAL_SURFACE ( 'NONE', #50, 4.700000000000000178, 0.2000000000000000111 ) ;
#23 = EDGE_CURVE ( 'NONE', #226, #268, #138, .T. ) ;
#24 = DIRECTION ( 'NONE',  ( 0.000000000000000000, 0.000000000000000000, 1.000000000000000000 ) ) ;
#25 = CC_DESIGN_DATE_AND_TIME_ASSIGNMENT ( #255, #302, ( #119 ) ) ;
#26 = ADVANCED_FACE ( 'NONE', ( #156 ), #209, .T. ) ;
#27 = VECTOR ( 'NONE', #45, 1000.000000000000000 ) ;
#28 = CARTESIAN_POINT ( 'NONE',  ( 0.000000000000000000, 0.000000000000000000, 5.199999999999982414 ) ) ;
#29 = EDGE_CURVE ( 'NONE', #252, #131, #41, .T. ) ;
#30 = DIRECTION ( 'NONE',  ( 1.000000000000000000, 0.000000000000000000, 0.000000000000000000 ) ) ;
#31 = EDGE_LOOP ( 'NONE', ( #161, #14 ) ) ;
#32 = DIRECTION ( 'NONE',  ( -0.000000000000000000, -0.000000000000000000, -1.000000000000000000 ) ) ;
#33 =( NAMED_UNIT ( * ) PLANE_ANGLE_UNIT ( ) SI_UNIT ( $, .RADIAN. ) );
#34 = APPROVAL_PERSON_ORGANIZATION ( #292, #90, #176 ) ;
#35 = ORIENTED_EDGE ( 'NONE', *, *, #67, .F. ) ;
#36 = ORIENTED_EDGE ( 'NONE', *, *, #23, .T. ) ;
#37 = ORIENTED_EDGE ( 'NONE', *, *, #296, .F. ) ;
#38 = CALENDAR_DATE ( 2022, 7, 7 ) ;
#39 = ORIENTED_EDGE ( 'NONE', *, *, #195, .F. ) ;
#40 = CC_DESIGN_SECURITY_CLASSIFICATION ( #119, ( #307 ) ) ;
#41 = LINE ( 'NONE', #182, #278 ) ;
#42 = PERSON_AND_ORGANIZATION ( #213, #142 ) ;
#43 = DIRECTION ( 'NONE',  ( 0.000000000000000000, 0.000000000000000000, 1.000000000000000000 ) ) ;
#44 = AXIS2_PLACEMENT_3D ( 'NONE', #224, #254, #270 ) ;
#45 = DIRECTION ( 'NONE',  ( -0.000000000000000000, -0.000000000000000000, -1.000000000000000000 ) ) ;
#46 = EDGE_CURVE ( 'NONE', #57, #301, #297, .T. ) ;
#47 = DIRECTION ( 'NONE',  ( -1.000000000000000000, 1.224646799147353454E-16, 0.000000000000000000 ) ) ;
#48 = CYLINDRICAL_SURFACE ( 'NONE', #71, 4.500000000000000888 ) ;
#49 = AXIS2_PLACEMENT_3D ( 'NONE', #63, #167, #88 ) ;
#50 = AXIS2_PLACEMENT_3D ( 'NONE', #257, #43, #236 ) ;
#51 = APPROVAL_STATUS ( 'not_yet_approved' ) ;
#52 = FACE_BOUND ( 'NONE', #253, .T. ) ;
#53 = ADVANCED_FACE ( 'NONE', ( #247 ), #72, .T. ) ;
#54 =( NAMED_UNIT ( * ) SI_UNIT ( $, .STERADIAN. ) SOLID_ANGLE_UNIT ( ) );
#55 = VERTEX_POINT ( 'NONE', #200 ) ;
#56 = CARTESIAN_POINT ( 'NONE',  ( 0.000000000000000000, 0.000000000000000000, 5.199999999999982414 ) ) ;
#57 = VERTEX_POINT ( 'NONE', #178 ) ;
#58 = CC_DESIGN_APPROVAL ( #169, ( #119 ) ) ;
#59 = ORIENTED_EDGE ( 'NONE', *, *, #46, .T. ) ;
#60 = EDGE_LOOP ( 'NONE', ( #12, #126, #230, #100 ) ) ;
#61 = DIRECTION ( 'NONE',  ( -0.000000000000000000, -0.000000000000000000, -1.000000000000000000 ) ) ;
#62 = EDGE_LOOP ( 'NONE', ( #231, #181 ) ) ;
#63 = CARTESIAN_POINT ( 'NONE',  ( 0.000000000000000000, 0.000000000000000000, 635.0000000000000000 ) ) ;
#64 = DIRECTION ( 'NONE',  ( 0.000000000000000000, 0.000000000000000000, 1.000000000000000000 ) ) ;
#65 = LINE ( 'NONE', #214, #170 ) ;
#66 = DIRECTION ( 'NONE',  ( 0.000000000000000000, 0.000000000000000000, -1.000000000000000000 ) ) ;
#67 = EDGE_CURVE ( 'NONE', #57, #252, #269, .T. ) ;
#68 = PERSON_AND_ORGANIZATION_ROLE ( 'design_owner' ) ;
#69 = DIRECTION ( 'NONE',  ( 1.000000000000000000, 0.000000000000000000, 0.000000000000000000 ) ) ;
#70 = ADVANCED_FACE ( 'NONE', ( #78 ), #274, .F. ) ;
#71 = AXIS2_PLACEMENT_3D ( 'NONE', #162, #186, #115 ) ;
#72 = CYLINDRICAL_SURFACE ( 'NONE', #145, 7.000000000000000000 ) ;
#73 = CALENDAR_DATE ( 2022, 7, 7 ) ;
#74 = VERTEX_POINT ( 'NONE', #299 ) ;
#75 = AXIS2_PLACEMENT_3D ( 'NONE', #127, #104, #203 ) ;
#76 = DATE_TIME_ROLE ( 'creation_date' ) ;
#77 = CIRCLE ( 'NONE', #146, 7.000000000000000000 ) ;
#78 = FACE_OUTER_BOUND ( 'NONE', #62, .T. ) ;
#79 = SECURITY_CLASSIFICATION_LEVEL ( 'unclassified' ) ;
#80 =( GEOMETRIC_REPRESENTATION_CONTEXT ( 3 ) GLOBAL_UNCERTAINTY_ASSIGNED_CONTEXT ( ( #206 ) ) GLOBAL_UNIT_ASSIGNED_CONTEXT ( ( #97, #33, #54 ) ) REPRESENTATION_CONTEXT ( 'NONE', 'WORKASPACE' ) );
#81 = ORIENTED_EDGE ( 'NONE', *, *, #195, .T. ) ;
#82 = FACE_OUTER_BOUND ( 'NONE', #31, .T. ) ;
#83 = DIRECTION ( 'NONE',  ( -0.000000000000000000, -0.000000000000000000, -1.000000000000000000 ) ) ;
#84 = SHAPE_DEFINITION_REPRESENTATION ( #245, #117 ) ;
#85 = CARTESIAN_POINT ( 'NONE',  ( 0.000000000000000000, 0.000000000000000000, 5.000000000000000000 ) ) ;
#86 = CC_DESIGN_APPROVAL ( #90, ( #149 ) ) ;
#87 = DIRECTION ( 'NONE',  ( 0.000000000000000000, 0.000000000000000000, 1.000000000000000000 ) ) ;
#88 = DIRECTION ( 'NONE',  ( 1.000000000000000000, 0.000000000000000000, -0.000000000000000000 ) ) ;
#89 = DIRECTION ( 'NONE',  ( -1.000000000000000000, 0.000000000000000000, 0.000000000000000000 ) ) ;
#90 = APPROVAL ( #9, 'NEURÈENÝ' ) ;
#91 = VECTOR ( 'NONE', #61, 1000.000000000000000 ) ;
#92 = ADVANCED_FACE ( 'NONE', ( #82 ), #276, .T. ) ;
#93 = CARTESIAN_POINT ( 'NONE',  ( 4.500000000000000888, 5.510910596163089556E-16, 5.199999999999982414 ) ) ;
#94 = MANIFOLD_SOLID_BREP ( 'Zaoblit1', #116 ) ;
#95 = CIRCLE ( 'NONE', #3, 4.700000000000000178 ) ;
#96 = CC_DESIGN_DATE_AND_TIME_ASSIGNMENT ( #7, #76, ( #149 ) ) ;
#97 =( LENGTH_UNIT ( ) NAMED_UNIT ( * ) SI_UNIT ( .MILLI., .METRE. ) );
#98 = APPROVAL_DATE_TIME ( #223, #90 ) ;
#99 = AXIS2_PLACEMENT_3D ( 'NONE', #190, #64, #21 ) ;
#100 = ORIENTED_EDGE ( 'NONE', *, *, #218, .F. ) ;
#101 = ORIENTED_EDGE ( 'NONE', *, *, #2, .F. ) ;
#102 = CARTESIAN_POINT ( 'NONE',  ( -7.000000000000000000, 0.000000000000000000, 5.000000000000000000 ) ) ;
#103 = ORIENTED_EDGE ( 'NONE', *, *, #2, .T. ) ;
#104 = DIRECTION ( 'NONE',  ( 0.000000000000000000, 0.000000000000000000, 1.000000000000000000 ) ) ;
#105 = DIRECTION ( 'NONE',  ( 1.000000000000000000, 0.000000000000000000, 0.000000000000000000 ) ) ;
#106 = APPROVAL_PERSON_ORGANIZATION ( #234, #169, #271 ) ;
#107 = VERTEX_POINT ( 'NONE', #143 ) ;
#108 = CALENDAR_DATE ( 2022, 7, 7 ) ;
#109 = CARTESIAN_POINT ( 'NONE',  ( 4.500000000000000888, 5.510910596163089556E-16, 635.0000000000000000 ) ) ;
#110 = APPROVAL_DATE_TIME ( #229, #169 ) ;
#111 = CARTESIAN_POINT ( 'NONE',  ( 0.000000000000000000, 0.000000000000000000, 5.199999999999982414 ) ) ;
#112 = CIRCLE ( 'NONE', #5, 4.500000000000000888 ) ;
#113 = AXIS2_PLACEMENT_3D ( 'NONE', #151, #289, #179 ) ;
#114 = CARTESIAN_POINT ( 'NONE',  ( 0.000000000000000000, 0.000000000000000000, 635.0000000000000000 ) ) ;
#115 = DIRECTION ( 'NONE',  ( -1.000000000000000000, 0.000000000000000000, 0.000000000000000000 ) ) ;
#116 = CLOSED_SHELL ( 'NONE', ( #238, #26, #222, #53, #287, #70, #192, #92, #133 ) ) ;
#117 = ADVANCED_BREP_SHAPE_REPRESENTATION ( 'd47f', ( #94, #113 ), #80 ) ;
#118 = PERSON_AND_ORGANIZATION ( #213, #142 ) ;
#119 = SECURITY_CLASSIFICATION ( '', '', #79 ) ;
#120 = DIRECTION ( 'NONE',  ( 0.000000000000000000, 0.000000000000000000, 1.000000000000000000 ) ) ;
#121 = EDGE_LOOP ( 'NONE', ( #175, #39, #272, #293 ) ) ;
#122 = COORDINATED_UNIVERSAL_TIME_OFFSET ( 1, 0, .AHEAD. ) ;
#123 = CARTESIAN_POINT ( 'NONE',  ( 0.000000000000000000, 0.000000000000000000, 5.000000000000000000 ) ) ;
#124 = DIRECTION ( 'NONE',  ( 0.000000000000000000, 0.000000000000000000, 1.000000000000000000 ) ) ;
#125 = CIRCLE ( 'NONE', #99, 7.000000000000000000 ) ;
#126 = ORIENTED_EDGE ( 'NONE', *, *, #215, .T. ) ;
#127 = CARTESIAN_POINT ( 'NONE',  ( 0.000000000000000000, 0.000000000000000000, 635.0000000000000000 ) ) ;
#128 = PERSON_AND_ORGANIZATION_ROLE ( 'creator' ) ;
#129 = ORIENTED_EDGE ( 'NONE', *, *, #46, .F. ) ;
#130 = EDGE_LOOP ( 'NONE', ( #81, #36 ) ) ;
#131 = VERTEX_POINT ( 'NONE', #137 ) ;
#132 = AXIS2_PLACEMENT_3D ( 'NONE', #163, #305, #285 ) ;
#133 = ADVANCED_FACE ( 'NONE', ( #235 ), #221, .F. ) ;
#134 = ORIENTED_EDGE ( 'NONE', *, *, #188, .T. ) ;
#135 = COORDINATED_UNIVERSAL_TIME_OFFSET ( 1, 0, .AHEAD. ) ;
#136 = CC_DESIGN_PERSON_AND_ORGANIZATION_ASSIGNMENT ( #42, #300, ( #307 ) ) ;
#137 = CARTESIAN_POINT ( 'NONE',  ( -4.500000000000000888, 0.000000000000000000, 5.199999999999982414 ) ) ;
#138 = CIRCLE ( 'NONE', #304, 7.000000000000000000 ) ;
#139 = CIRCLE ( 'NONE', #164, 0.1999999999999996503 ) ;
#140 = LINE ( 'NONE', #239, #27 ) ;
#141 = APPLICATION_CONTEXT ( 'configuration controlled 3d designs of mechanical parts and assemblies' ) ;
#142 = ORGANIZATION ( 'NEURÈENÝ', 'NEURÈENÝ', '' ) ;
#143 = CARTESIAN_POINT ( 'NONE',  ( 7.000000000000000000, 8.572527594031473190E-16, 0.000000000000000000 ) ) ;
#144 = DIRECTION ( 'NONE',  ( 1.224646799147353207E-16, 1.000000000000000000, -0.000000000000000000 ) ) ;
#145 = AXIS2_PLACEMENT_3D ( 'NONE', #123, #32, #279 ) ;
#146 = AXIS2_PLACEMENT_3D ( 'NONE', #189, #87, #306 ) ;
#147 = DIRECTION ( 'NONE',  ( 1.000000000000000000, 0.000000000000000000, 0.000000000000000000 ) ) ;
#148 = CALENDAR_DATE ( 2022, 7, 7 ) ;
#149 = PRODUCT_DEFINITION ( 'NEZNÁMÝ', '', #307, #264 ) ;
#150 = DIRECTION ( 'NONE',  ( -0.000000000000000000, -0.000000000000000000, -1.000000000000000000 ) ) ;
#151 = CARTESIAN_POINT ( 'NONE',  ( 0.000000000000000000, 0.000000000000000000, 0.000000000000000000 ) ) ;
#152 = ORIENTED_EDGE ( 'NONE', *, *, #155, .T. ) ;
#153 = CARTESIAN_POINT ( 'NONE',  ( 0.000000000000000000, 0.000000000000000000, 5.000000000000000000 ) ) ;
#154 = VERTEX_POINT ( 'NONE', #212 ) ;
#155 = EDGE_CURVE ( 'NONE', #301, #154, #139, .T. ) ;
#156 = FACE_OUTER_BOUND ( 'NONE', #267, .T. ) ;
#157 = ORIENTED_EDGE ( 'NONE', *, *, #29, .T. ) ;
#158 = CARTESIAN_POINT ( 'NONE',  ( 0.000000000000000000, 0.000000000000000000, 0.000000000000000000 ) ) ;
#159 = ORIENTED_EDGE ( 'NONE', *, *, #155, .F. ) ;
#160 = EDGE_CURVE ( 'NONE', #55, #107, #77, .T. ) ;
#161 = ORIENTED_EDGE ( 'NONE', *, *, #243, .T. ) ;
#162 = CARTESIAN_POINT ( 'NONE',  ( 0.000000000000000000, 0.000000000000000000, 635.0000000000000000 ) ) ;
#163 = CARTESIAN_POINT ( 'NONE',  ( 0.000000000000000000, 0.000000000000000000, 5.000000000000000000 ) ) ;
#164 = AXIS2_PLACEMENT_3D ( 'NONE', #1, #259, #66 ) ;
#165 = FACE_OUTER_BOUND ( 'NONE', #294, .T. ) ;
#166 = LOCAL_TIME ( 11, 56, 14.00000000000000000, #196 ) ;
#167 = DIRECTION ( 'NONE',  ( 0.000000000000000000, 0.000000000000000000, 1.000000000000000000 ) ) ;
#168 = CC_DESIGN_PERSON_AND_ORGANIZATION_ASSIGNMENT ( #298, #128, ( #307 ) ) ;
#169 = APPROVAL ( #232, 'NEURÈENÝ' ) ;
#170 = VECTOR ( 'NONE', #210, 1000.000000000000000 ) ;
#171 = APPLICATION_PROTOCOL_DEFINITION ( 'international standard', 'config_control_design', 1994, #141 ) ;
#172 = DIRECTION ( 'NONE',  ( 0.000000000000000000, 0.000000000000000000, 1.000000000000000000 ) ) ;
#173 = AXIS2_PLACEMENT_3D ( 'NONE', #258, #144, #47 ) ;
#174 = ORIENTED_EDGE ( 'NONE', *, *, #251, .F. ) ;
#175 = ORIENTED_EDGE ( 'NONE', *, *, #215, .F. ) ;
#176 = APPROVAL_ROLE ( '' ) ;
#177 = ORIENTED_EDGE ( 'NONE', *, *, #251, .T. ) ;
#178 = CARTESIAN_POINT ( 'NONE',  ( 4.500000000000000888, 5.510910596163089556E-16, 635.0000000000000000 ) ) ;
#179 = DIRECTION ( 'NONE',  ( 1.000000000000000000, 0.000000000000000000, 0.000000000000000000 ) ) ;
#180 = ORIENTED_EDGE ( 'NONE', *, *, #188, .F. ) ;
#181 = ORIENTED_EDGE ( 'NONE', *, *, #241, .F. ) ;
#182 = CARTESIAN_POINT ( 'NONE',  ( -4.500000000000000888, 0.000000000000000000, 635.0000000000000000 ) ) ;
#183 = PERSON_AND_ORGANIZATION_ROLE ( 'classification_officer' ) ;
#184 = CARTESIAN_POINT ( 'NONE',  ( 0.000000000000000000, 0.000000000000000000, 5.000000000000000000 ) ) ;
#185 = AXIS2_PLACEMENT_3D ( 'NONE', #158, #228, #204 ) ;
#186 = DIRECTION ( 'NONE',  ( -0.000000000000000000, -0.000000000000000000, -1.000000000000000000 ) ) ;
#187 = FACE_OUTER_BOUND ( 'NONE', #10, .T. ) ;
#188 = EDGE_CURVE ( 'NONE', #131, #74, #17, .T. ) ;
#189 = CARTESIAN_POINT ( 'NONE',  ( 0.000000000000000000, 0.000000000000000000, 0.000000000000000000 ) ) ;
#190 = CARTESIAN_POINT ( 'NONE',  ( 0.000000000000000000, 0.000000000000000000, 0.000000000000000000 ) ) ;
#191 = AXIS2_PLACEMENT_3D ( 'NONE', #56, #120, #69 ) ;
#192 = ADVANCED_FACE ( 'NONE', ( #187 ), #48, .T. ) ;
#193 = LOCAL_TIME ( 11, 56, 14.00000000000000000, #135 ) ;
#194 = MECHANICAL_CONTEXT ( 'NONE', #11, 'mechanical' ) ;
#195 = EDGE_CURVE ( 'NONE', #268, #226, #246, .T. ) ;
#196 = COORDINATED_UNIVERSAL_TIME_OFFSET ( 1, 0, .AHEAD. ) ;
#197 = PERSON_AND_ORGANIZATION ( #213, #142 ) ;
#198 = AXIS2_PLACEMENT_3D ( 'NONE', #85, #284, #89 ) ;
#199 = PRODUCT ( 'd47f', 'd47f', '', ( #194 ) ) ;
#200 = CARTESIAN_POINT ( 'NONE',  ( -7.000000000000000000, 0.000000000000000000, 0.000000000000000000 ) ) ;
#201 = PERSON_AND_ORGANIZATION_ROLE ( 'creator' ) ;
#202 = ORIENTED_EDGE ( 'NONE', *, *, #29, .F. ) ;
#203 = DIRECTION ( 'NONE',  ( 1.000000000000000000, 0.000000000000000000, 0.000000000000000000 ) ) ;
#204 = DIRECTION ( 'NONE',  ( 1.000000000000000000, 0.000000000000000000, -0.000000000000000000 ) ) ;
#205 = AXIS2_PLACEMENT_3D ( 'NONE', #153, #150, #291 ) ;
#206 = UNCERTAINTY_MEASURE_WITH_UNIT (LENGTH_MEASURE( 1.000000000000000082E-05 ), #97, 'distance_accuracy_value', 'NONE');
#207 = CARTESIAN_POINT ( 'NONE',  ( 0.000000000000000000, 0.000000000000000000, 5.000000000000000000 ) ) ;
#208 = CALENDAR_DATE ( 2022, 7, 7 ) ;
#209 = CYLINDRICAL_SURFACE ( 'NONE', #44, 4.500000000000000888 ) ;
#210 = DIRECTION ( 'NONE',  ( -0.000000000000000000, -0.000000000000000000, -1.000000000000000000 ) ) ;
#211 = CC_DESIGN_APPROVAL ( #281, ( #307 ) ) ;
#212 = CARTESIAN_POINT ( 'NONE',  ( 4.700000000000000178, 0.000000000000000000, 4.999999999999991118 ) ) ;
#213 = PERSON ( 'NEURÈENÝ', 'NEURÈENÝ', 'NEURÈENÝ', ('NEURÈENÝ'), ('NEURÈENÝ'), ('NEURÈENÝ') ) ;
#214 = CARTESIAN_POINT ( 'NONE',  ( -7.000000000000000000, 0.000000000000000000, 5.000000000000000000 ) ) ;
#215 = EDGE_CURVE ( 'NONE', #226, #107, #140, .T. ) ;
#216 = CIRCLE ( 'NONE', #191, 4.500000000000000888 ) ;
#217 = APPLICATION_PROTOCOL_DEFINITION ( 'international standard', 'config_control_design', 1994, #11 ) ;
#218 = EDGE_CURVE ( 'NONE', #268, #55, #65, .T. ) ;
#219 = PERSON_AND_ORGANIZATION ( #213, #142 ) ;
#220 = CARTESIAN_POINT ( 'NONE',  ( -4.500000000000000888, 0.000000000000000000, 635.0000000000000000 ) ) ;
#221 = TOROIDAL_SURFACE ( 'NONE', #303, 4.700000000000000178, 0.2000000000000000111 ) ;
#222 = ADVANCED_FACE ( 'NONE', ( #4 ), #237, .T. ) ;
#223 = DATE_AND_TIME ( #148, #256 ) ;
#224 = CARTESIAN_POINT ( 'NONE',  ( 0.000000000000000000, 0.000000000000000000, 635.0000000000000000 ) ) ;
#225 = CIRCLE ( 'NONE', #282, 4.500000000000000888 ) ;
#226 = VERTEX_POINT ( 'NONE', #286 ) ;
#227 = ORIENTED_EDGE ( 'NONE', *, *, #243, .F. ) ;
#228 = DIRECTION ( 'NONE',  ( 0.000000000000000000, 0.000000000000000000, 1.000000000000000000 ) ) ;
#229 = DATE_AND_TIME ( #108, #193 ) ;
#230 = ORIENTED_EDGE ( 'NONE', *, *, #241, .T. ) ;
#231 = ORIENTED_EDGE ( 'NONE', *, *, #160, .F. ) ;
#232 = APPROVAL_STATUS ( 'not_yet_approved' ) ;
#233 = DIRECTION ( 'NONE',  ( 1.000000000000000000, 0.000000000000000000, 0.000000000000000000 ) ) ;
#234 = PERSON_AND_ORGANIZATION ( #213, #142 ) ;
#235 = FACE_OUTER_BOUND ( 'NONE', #18, .T. ) ;
#236 = DIRECTION ( 'NONE',  ( 1.000000000000000000, 0.000000000000000000, 0.000000000000000000 ) ) ;
#237 = CYLINDRICAL_SURFACE ( 'NONE', #198, 7.000000000000000000 ) ;
#238 = ADVANCED_FACE ( 'NONE', ( #165 ), #22, .F. ) ;
#239 = CARTESIAN_POINT ( 'NONE',  ( 7.000000000000000000, 8.572527594031473190E-16, 5.000000000000000000 ) ) ;
#240 = DIRECTION ( 'NONE',  ( 1.000000000000000000, 0.000000000000000000, -0.000000000000000000 ) ) ;
#241 = EDGE_CURVE ( 'NONE', #107, #55, #125, .T. ) ;
#242 = FACE_OUTER_BOUND ( 'NONE', #130, .T. ) ;
#243 = EDGE_CURVE ( 'NONE', #252, #57, #112, .T. ) ;
#244 = ORIENTED_EDGE ( 'NONE', *, *, #273, .T. ) ;
#245 = PRODUCT_DEFINITION_SHAPE ( 'NONE', 'NONE',  #149 ) ;
#246 = CIRCLE ( 'NONE', #132, 7.000000000000000000 ) ;
#247 = FACE_OUTER_BOUND ( 'NONE', #121, .T. ) ;
#248 = LOCAL_TIME ( 11, 56, 14.00000000000000000, #15 ) ;
#249 = ORIENTED_EDGE ( 'NONE', *, *, #296, .T. ) ;
#250 = DATE_AND_TIME ( #208, #166 ) ;
#251 = EDGE_CURVE ( 'NONE', #74, #154, #260, .T. ) ;
#252 = VERTEX_POINT ( 'NONE', #220 ) ;
#253 = EDGE_LOOP ( 'NONE', ( #103, #177 ) ) ;
#254 = DIRECTION ( 'NONE',  ( -0.000000000000000000, -0.000000000000000000, -1.000000000000000000 ) ) ;
#255 = DATE_AND_TIME ( #38, #248 ) ;
#256 = LOCAL_TIME ( 11, 56, 14.00000000000000000, #122 ) ;
#257 = CARTESIAN_POINT ( 'NONE',  ( 0.000000000000000000, 0.000000000000000000, 5.199999999999982414 ) ) ;
#258 = CARTESIAN_POINT ( 'NONE',  ( -4.700000000000000178, 5.755839955992559655E-16, 5.199999999999982414 ) ) ;
#259 = DIRECTION ( 'NONE',  ( 0.000000000000000000, -1.000000000000000000, 0.000000000000000000 ) ) ;
#260 = CIRCLE ( 'NONE', #205, 4.700000000000000178 ) ;
#261 = LOCAL_TIME ( 11, 56, 14.00000000000000000, #295 ) ;
#262 = CARTESIAN_POINT ( 'NONE',  ( 0.000000000000000000, 0.000000000000000000, 5.000000000000000000 ) ) ;
#263 = CC_DESIGN_PERSON_AND_ORGANIZATION_ASSIGNMENT ( #197, #201, ( #149 ) ) ;
#264 = DESIGN_CONTEXT ( 'detailed design', #141, 'design' ) ;
#265 = AXIS2_PLACEMENT_3D ( 'NONE', #262, #124, #240 ) ;
#266 = PLANE ( 'NONE',  #265 ) ;
#267 = EDGE_LOOP ( 'NONE', ( #35, #59, #244, #202 ) ) ;
#268 = VERTEX_POINT ( 'NONE', #102 ) ;
#269 = CIRCLE ( 'NONE', #75, 4.500000000000000888 ) ;
#270 = DIRECTION ( 'NONE',  ( -1.000000000000000000, 0.000000000000000000, 0.000000000000000000 ) ) ;
#271 = APPROVAL_ROLE ( '' ) ;
#272 = ORIENTED_EDGE ( 'NONE', *, *, #218, .T. ) ;
#273 = EDGE_CURVE ( 'NONE', #301, #131, #225, .T. ) ;
#274 = PLANE ( 'NONE',  #185 ) ;
#275 = ORIENTED_EDGE ( 'NONE', *, *, #273, .F. ) ;
#276 = PLANE ( 'NONE',  #49 ) ;
#277 = APPROVAL_DATE_TIME ( #250, #281 ) ;
#278 = VECTOR ( 'NONE', #19, 1000.000000000000000 ) ;
#279 = DIRECTION ( 'NONE',  ( -1.000000000000000000, 0.000000000000000000, 0.000000000000000000 ) ) ;
#280 = PERSON_AND_ORGANIZATION ( #213, #142 ) ;
#281 = APPROVAL ( #51, 'NEURÈENÝ' ) ;
#282 = AXIS2_PLACEMENT_3D ( 'NONE', #28, #290, #30 ) ;
#283 = CC_DESIGN_PERSON_AND_ORGANIZATION_ASSIGNMENT ( #280, #183, ( #119 ) ) ;
#284 = DIRECTION ( 'NONE',  ( -0.000000000000000000, -0.000000000000000000, -1.000000000000000000 ) ) ;
#285 = DIRECTION ( 'NONE',  ( 1.000000000000000000, 0.000000000000000000, 0.000000000000000000 ) ) ;
#286 = CARTESIAN_POINT ( 'NONE',  ( 7.000000000000000000, 8.572527594031473190E-16, 5.000000000000000000 ) ) ;
#287 = ADVANCED_FACE ( 'NONE', ( #52, #242 ), #266, .T. ) ;
#288 = APPROVAL_PERSON_ORGANIZATION ( #118, #281, #8 ) ;
#289 = DIRECTION ( 'NONE',  ( 0.000000000000000000, 0.000000000000000000, 1.000000000000000000 ) ) ;
#290 = DIRECTION ( 'NONE',  ( 0.000000000000000000, 0.000000000000000000, 1.000000000000000000 ) ) ;
#291 = DIRECTION ( 'NONE',  ( 1.000000000000000000, 0.000000000000000000, 0.000000000000000000 ) ) ;
#292 = PERSON_AND_ORGANIZATION ( #213, #142 ) ;
#293 = ORIENTED_EDGE ( 'NONE', *, *, #160, .T. ) ;
#294 = EDGE_LOOP ( 'NONE', ( #37, #134, #101, #159 ) ) ;
#295 = COORDINATED_UNIVERSAL_TIME_OFFSET ( 1, 0, .AHEAD. ) ;
#296 = EDGE_CURVE ( 'NONE', #131, #301, #216, .T. ) ;
#297 = LINE ( 'NONE', #109, #91 ) ;
#298 = PERSON_AND_ORGANIZATION ( #213, #142 ) ;
#299 = CARTESIAN_POINT ( 'NONE',  ( -4.700000000000000178, 5.755839955992559655E-16, 4.999999999999991118 ) ) ;
#300 = PERSON_AND_ORGANIZATION_ROLE ( 'design_supplier' ) ;
#301 = VERTEX_POINT ( 'NONE', #93 ) ;
#302 = DATE_TIME_ROLE ( 'classification_date' ) ;
#303 = AXIS2_PLACEMENT_3D ( 'NONE', #111, #24, #20 ) ;
#304 = AXIS2_PLACEMENT_3D ( 'NONE', #184, #13, #105 ) ;
#305 = DIRECTION ( 'NONE',  ( 0.000000000000000000, 0.000000000000000000, 1.000000000000000000 ) ) ;
#306 = DIRECTION ( 'NONE',  ( 1.000000000000000000, 0.000000000000000000, 0.000000000000000000 ) ) ;
#307 = PRODUCT_DEFINITION_FORMATION_WITH_SPECIFIED_SOURCE ( 'LIBOVOLNÝ', '', #199, .NOT_KNOWN. ) ;
ENDSEC;
END-ISO-10303-21;
